111223

Solo disponible en BuenasTareas
  • Páginas : 2 (364 palabras )
  • Descarga(s) : 0
  • Publicado : 6 de mayo de 2011
Leer documento completo
Vista previa del texto
--12-12-12-----12--15--------
------------13---------------
-------------------------12--
----------------------------------------------------------
-----------------------------

|----------------------------------12--15-17--13-15--12-----------||-13-----------------12----------------------------------13-15-12-|
|------12--------14------15-14--12--------------------------------||-----------14----------------------------------------------------|
|-----------------------------------------------------------------||-----------------------------------------------------------------| x2

|-15-14-13-------------------------------15-14-13---------20--20-20-|----------16--17--------13-----13-15-------------16--17------------
|------------------13-14-----14-------------------------------------
|-------------------------------------------------------------------|-------------------------------------------------------------------
|--------------------------------------------------------------------15-14-13--------------------------------------------|
----------16--17--------13-----13-15----16---15---13-|
------------------13-14-----14-----------------------|-----------------------------------------------------|
-----------------------------------------------------|-----------------------------------------------------| x2

--------------------12-------------------------------12--
--13-13--13--13-15-----13-----------13-13--13--13-15-----...
tracking img