Acabados

Solo disponible en BuenasTareas
  • Páginas : 5 (1215 palabras )
  • Descarga(s) : 0
  • Publicado : 20 de agosto de 2012
Leer documento completo
Vista previa del texto
Solo tengo ojos para ti-Juan Luis Guerra

INTRO:

D A/D
e|---------5------------5------|
B|-----7-----7------5-----5----|
G|-------7-----7------6-----6--|
D|--0-------------0------------|
A|-----------------------------|E|-----------------------------|

G/D Gm
e|-----------3-----------------3----------|
B|-----3-------3----------3-------3-------|
G|--------4-------4---------3--------3----|
D|--0------------------0------------------|A|----------------------------------------|
E|----------------------------------------|
D E/D Gm A7
e|---------2----------------4--------------3-----------------3-------|
B|-----3-----3----------5-----5--------3-----3---------2--------2----|G|-------2-----2----------4-----4--------3-----3----------0--------0-|
D|--0----------------0---------------0-------------------------------|
A|--------------------------------------------------0----------------|
E|-------------------------------------------------------------------|

ESTROFA:
D A/De|---------5------------5----------------5---------------5-----------|
B|-----7-----7------7-----7---------5-------5--------5-----5---------|
G|-------7-----7------7-----7----------6------6--------6------6------|
D|--0-------------0--------------0----------------0------------------|A|-------------------------------------------------------------------|
E|-------------------------------------------------------------------|

G Gm
e|-----------3-----------------3-----------------3-------------3-----|
B|-----3-------3----------3-------3----------3-----3-------3------3--|G|--------4-------4---------4--------4---------3-----3-------3------3|
D|--0------------------0-----------------0---------------0-----------|
A|-------------------------------------------------------------------|
E|-------------------------------------------------------------------|

De|---------2------------------2------------|
B|----3-------3----------3-------3---------|
G|-------2------2----------2--------2------|
D|--0----------------0---------------------|
A|-----------------------------------------|
E|-----------------------------------------|

E/DG D/F# Em
e|--------4--------------4-------------------------------------------|
B|----5------5-------5-----5-----------3-----------3---------0-------|
G|------4------4-------4-----4-------4-----------2---------0---0-----|D|-0--------------0--------------------------------------------------|
A|-------------------------------------------------------------------|
E|---------------------------------3-------3--2-------2-0------------|
A7 D
e|-------------------0h2--0-----0h2-----|
B|---3----2--------3--------3-----------|
G|------0--------2------------2---------|...
tracking img