Acont

Solo disponible en BuenasTareas
  • Páginas : 3 (559 palabras )
  • Descarga(s) : 0
  • Publicado : 16 de mayo de 2011
Leer documento completo
Vista previa del texto
Steel Dragon - We All Die Young
By: Andrew Mcshan(Guitarguyx182@aol.com)
Tuning - Drop D(DADGBE)
IntroE-----------------------------------------------------------------------------
B-----------------------------------------------------------------------------G-----------------------------------------------------------------------------
D-----------------------------------------------------------------------------A-10\12-12--12-12--12\14-14/10-10--10-10--9\10-10--10-10-10-10--10/9-9--9-9-9-
D-----------------------------------------------------------------------------E----------------------|
B----------------------|
G-------7h9p7----------|
D--7h9-----------------|
A----------------------|D----------------------|
Chorus
E-----------------------------|
B-----------------------------|
G-----------------------------|D--5--4--5--------------------|
A--3--2--5-----0---X-0---0-X--|
D--------5-----0---X-0-X-0-X--|
Verse 2E-----------------------------------------------------------------------------
B-8\10-10-10-10-10-10--10\12-12/8-8--8-8-8-8--7\8-8--8-8-8-8--8-8/7-7--7-7-7-7G-----------------------------------------------------------------------------
D-----------------------------------------------------------------------------A-----------------------------------------------------------------------------
D-----------------------------------------------------------------------------
Solo Rhythm...
tracking img