Acordes de ave maria

Solo disponible en BuenasTareas
  • Páginas : 3 (527 palabras )
  • Descarga(s) : 0
  • Publicado : 2 de septiembre de 2012
Leer documento completo
Vista previa del texto
e|--------------------------------3-----------1----------------|
B|--------1-----------1---------5---5-------1---1--------------|G|------0---0-------0---0-----3-------3---2-------2------------|
D|----2-------2---2-------2------------------------------------|
A|--3-----------3-----------3-----------3----------------------|E|-------------------------------------------------------------|

e|--------1-----------0----------------------------------------|
B|------1---1-------1---1---------1----------------------------|G|----1-------1---0-------0-----0---0--------------------------|
D|----------------------------2-------2------------------------|
A|--3-----------3-----------3----------------------------------|E|-------------------------------------------------------------|

1ª parte

e|--------------------------0------0---------------------------|
B|--1-----1---------1-0---1----------1----------3--------------|G|------0---0-----------2--------0-----0------4---4------------|
D|----2-------2---4------------2------------3-------3----------|
A|--3-----------0----------------------------------------------|E|--------------------------3-------------3--------------------|

e|----------------------------------0--------------------------|
B|--1-----1-----------1-----------3---3--1----0-----0----------|G|------2---2-------2---2-------2--------0------2--------------|
D|----2-------2---2-------2---3----------0--0-----0------------|
A|--0-----------0----------------------------------------------|E|--------------------------1------------3---------------------|

e|---------------------0------0------0-------------0--2--------|
B|--1-----1-------------------0--------3--1--0-----------------|G|------0---0-------0------0--1----1-------------2-------------|
D|----2-------2---2------2-------2-------------2---------------|
A|--3-----------3-------------3--------------3-----------------|...
tracking img