Acordes musicales

Solo disponible en BuenasTareas
  • Páginas : 2 (317 palabras )
  • Descarga(s) : 0
  • Publicado : 10 de febrero de 2010
Leer documento completo
Vista previa del texto
Acordes del Poema:
Sim - Fa#m - La - Re - Sol - Solm - La
Adornos En el poema:
1ro. 2do.
e|------------------| e|------------------|
B|------------------| B|------------------|D|--4-6-6/7-7-7-6---| D|--3-5-5/7-7-5-3---|
G|------------------| G|------------------|
A|------------------| A|------------------|
E|------------------| E|------------------|
Poema: Tedirán las palabras de amor que yo te decía
miraran contigo el mar y la distancia,
suspiraras ante el ocaso cada tarde,
te llevaran en el pensamiento como contigo yo me enternecí
te amarancomo yo te viví, dime amor, yo necesito saber...
e|------------------|
B|-2-3-5-7----------|
D|------------------|
G|------------------|
A|------------------|E|------------------|
Re Re-Do#m-Sim
¿Qué será de ti?
Fa#m
Necesito saber de tu vida
La Re Sol
alguien que me cuente de tus días
Solm La
anocheció y necesito saber.
Re Re-Do#m-Sim
¿Quéserá de ti?
Fa#m
Cambiaste sin saber toda mi vida
La Re Sol
motivo de una paz que ya se olvida
Solm La
no sé si busco mas de mi, o mas de ti
Re Sim
Ven que esta sed de amarte mehace bien
Sol
yo quiero amanecer contigo amor
La
te necesito para estar feliz
Re Sim
Ven el tiempo corre y nos separa
Sol
la vida nos está dejando atrás
La
yo necesitosaber...
Re
¿Qué será de ti?.
e|--2--3--5--2--3--5--7--3--5--5/9-----|
B|--3--5--7--3--5--7--8--5--7--7/10----|
D|-------------------------------------|G|-------------------------------------|
A|-------------------------------------|
E|-------------------------------------|
Re Sim
Ven el tiempo corre y nos separa
Sol
la vida nos está dejando atrás
Layo necesito saber
Re
¿Qué será de ti?.
e|--2--3--5--2--2--|
B|--3--5--7--3--3--|
D|-----------------|
G|-----------------|
A|-----------------|
E|-----------------|
*...
tracking img