Acordes para guitarra

Solo disponible en BuenasTareas
  • Páginas : 5 (1227 palabras )
  • Descarga(s) : 0
  • Publicado : 3 de octubre de 2010
Leer documento completo
Vista previa del texto
ACORDES
Bm G D A Em
e----2----3----2----0----0----| NOTA: Lleva capo en el primer traste,
B----3----0----3----2----0----| aunque pueden tocarlo sin capo de
G----4----0----2----2----0----| todos modos suena bien.
D----4----0----0----2----2----|
A----2----2----X----0----2----|
E----X----3----X----X----0----|

INTRO:

Bm G D Ae|------------|----------|------0---|------------|
B|-------2----|----------|--------3-|-------0----|
G|---------4--|-----3h0--|----2-----|---------2--|
D|-----4------|---0------|--0-------|-----2------|
A|---2--------|----------|----------|---0--------|
E|------------|-3--------|----------|------------|

Bm G D Ae|------------|----------|------0---|-----------0--|
B|-------2----|----------|----------|-------0------|
G|---------4--|-----3h0--|----2---3-|---------2----|
D|-----4------|---0------|--0-------|-----2--------|
A|---2--------|----------|----------|---0----------|
E|------------|-3--------|----------|--------------|

_______________________________________________________

D Ge|-----0---------0---|-------------------|
B|-------------------|-------------------|
G|---2---3-----2---3-|-----3h0------3h0--|
D|-0---------0-------|---0--------0------|
A|-------------------|-------------------|
E|-------------------|-3--------3--------|
Sabes no pido nada más que estar entre tus

D G Bm
e|-----0---|------------|------------------------|B|---------|------------|--------2---------2-----|
G|---2---3-|-------3h0--|----------4---------4---|
D|-0-------|-----0------|------4---------4-------|
A|---------|------------|----2---------2---------|
E|---------|---3--------|------------------------|
brazos y huir de todo el mal q`ah todo e renunciado

Em D D Ae|------------|-------0----|-----0----|------------|
B|--------0---|------------|----------|----2-------|
G|----------0-|-----2---3--|---2---3--|----2-------|
D|------2-----|---0--------|-0--------|----2-------|
A|------------|------------|----------|----0-------|
E|----0-------|------------|----------|------------|
por estar junto a ti...

________________________________________________________D G
Sabes no dejo de pensar
D
que estoy enamorado
G
te quiero confesar
Bm Em D
que soy solo un esclavo
A
que no sabe vivir sin ti

CORO

Bm G D
Cuando llegaste tú
A Bm
te metiste en mi ser
G D
Encendiste la luz
A Em
me llenaste de feG
tanto tiempo busque
Em
pero al fin te encontré
D A
tan perfecta como te imagine nou nouoouuoo

Bm G D
Como aguja en un pajar
A Bm
te busque sin cesar
G D
como huella en el mar
A Em
tan difícil de hallar
G
tanto tiempo busque
Em
pero al finte encontré
D A
tan perfectaaaa como te imagine

Bm G D A
e|------------|----------|------0---|------------|
B|-------2----|----------|--------3-|-------0----|
G|---------4--|-----3h0--|----2-----|---------2--|
D|-----4------|---0------|--0-------|-----2------|
A|---2--------|----------|----------|---0--------|E|------------|-3--------|----------|------------|

Bm G D A
e|------------|----------|------0---|------------|
B|-------2----|----------|--------3-|---2--------|
G|---------4--|-----3h0--|----2-----|---2--------|
D|-----4------|---0------|--0-------|---2--------|
A|---2--------|----------|----------|---0--------|
E|------------|-3--------|----------|------------|...
tracking img