Acordes y tabluras

Solo disponible en BuenasTareas
  • Páginas : 5 (1088 palabras )
  • Descarga(s) : 0
  • Publicado : 15 de noviembre de 2011
Leer documento completo
Vista previa del texto
El chavo del ocho

e|-----------------0---------------------------------------
B|-------------------3-1-0---------------------------------
G|-0--------0--------------2-0-------0---------------------
D|---2-2-2----2-2--------------3-2-3-----------------------
A|---------------------------------------------------------
E|---------------------------------------------------------e|-----------------0---------------------------------------
B|-------------------3-1-0----------0-1--------------------
G|-0--------0--------------2-0-----------------------------
D|---2-2-2----2-2------------------------------------------
A|---------------------------------------------------------
E|---------------------------------------------------------e|------------------------------0---0----------------------
B|-1---------1---1----3-0-3-0-----1---1--------------------
G|---2-2-2-----2---2---------------------------------------
D|---------------------------------------------------------
A|---------------------------------------------------------
E|---------------------------------------------------------

e|-----------------0---------------------------------------B|-------------------3-1-0----------0-1--------------------
G|-0--------0--------------2-0-----------------------------
D|---2-2-2----2-2------------------------------------------
A|---------------------------------------------------------
E|---------------------------------------------------------

La Do#m7 Mim7 La7 Re Re/Do#
Sim7 Sim7/La Misus4 Mi7

La La7sus4Cuántas veces buscando la pareja ideal
Re
He caído hasta el fondo de la soledad
Sim7 Do#m7
y queriendo olvidar el dolor de un adiós
Re Sim7 Mi Mi7
se me pasan los días sin ilusión.

La La7sus4
Pero tarde o temprano sin poderlo evitar
Re
alguien tumba los muros y me logra hechizar
Sim7Do#m7
y una fuerza que emerge desde mi interior
Re Sim7 Misus4 Mi Mi7
me seduce y me pone a merced del amor...

La7M Do#m7
Y es que tengo un corazón enamorado
Mim7 La7sus4 La7 Re Re7M
Que una y otra y otra vez ha sido herido
Rem Sol7 Lasus4 Fa#m7M
Y aunque creo ser el último románticoSi7sus4 Si7 Misus4 Mi Mi7
Algún día voy a ser correspondido

La7M Do#m7
Es que soy quizás demás apasionado
Mim7 La7sus4 La7 Re Re7M
Yo me puedo enamorar hasta el delirio,
Rem Sol7 Lasus4 Fa#m7M
No me importa ser El último romántico,
Si7sus4 Si7 Misus4 Mi Mi7
Seguirá siendo elamor mi único vicio
La Do#m7 Mim7 La7 Re Re/Do#
Sim7 Sim7/La Misus4 Mi7

La La/5+
Pero tarde o temprano sin poderlo evitar
Re
alguien tumba los muros y me logra hechizar
Sim7 Do#m7
y una fuerza que emerge desde mi interior
Re Sim7 Mi7
me seduce y me pone a merced del amor...

La7MDo#m7
Y es que tengo un corazón enamorado
Mim7 La7sus4 La7 Re Re7M
Que una y otra y otra vez ha sido herido
Rem Sol7 Lasus4 Fa#m7M
Y aunque creo ser el último romántico
Si7sus4 Si7 Misus4 Mi Mi7
Algún día voy a ser correspondido

La7M Do#m7
Es que soy quizás demás apasionadoMim7 La7sus4 La7 Re Re7M
Yo me puedo enamorar hasta el delirio,
Rem Sol7 Lasus4 Fa#m7M
No me importa ser El último romántico,
Si7sus4 Si7 Misus4 Mi Mi7
Seguirá siendo el amor mi único vicio

La7M Do#m7
Y es que tengo un corazón enamorado
Mim7 La7sus4 La7 Re Re7M
Que una y otra y...
tracking img