Acordes

Solo disponible en BuenasTareas
  • Páginas : 9 (2023 palabras )
  • Descarga(s) : 0
  • Publicado : 22 de marzo de 2011
Leer documento completo
Vista previa del texto
Fall Out Boy
===== Intro =====
2gtr
e--0-----------------------x-x-x-x-x-x-x-----------Bend a few notes in this main riff,---------|
B--0------DRUMS------------x-x-x-x-x-x-x------------------------sounds cool!-------------------|G--0------------START------x-x-x-x-x-x-x-------------------------------------------------------|
D--0-----------------------x-x-x-x-x-x-x----------------3-----------------------3--------------|
A--0-----------------------x-x-x-x-x-x-x--------------0---5-5---/7-5-3-3------0---5-5--/7-5-3--|
D--0-----------------------x-x-x-x-x-x-x----/12--0-3---------------------0-3------------------|e-----------------------------------------------------------------|
B-----------------------------------------------------------------|
G--5--5--------------------------------------------------5--5--5--|
D--5--5--------3-----------------------3-----------------5--5--5--|A--3--3------0---5-5---/7-5-3-3------0---5-5---/7-5-3----3--3--3--|
D--------0-3---------------------0-3------------------------------|
===== Verse =====
Guitar 1 - On the second through this chord progression, don’t palm mute.
e--------------------------------------------------------------------------|B-------------------------------------------------------------------x-x-x--| X 2
G----------5-5-5-----------5-5-5---3-3-3---5-5-5------------------5-x-x-x--|
D--0-0-0---5-5-5---0-0-0---5-5-5---3-3-3---5-5-5---3-3-3---0-0-0--5-x-x-x--|
A--0-0-0---3-3-3---0-0-0---3-3-3---1-1-1---3-3-3---3-3-3---0-0-0--3-x-x-x--|D--0-0-0-----------0-0-0---------------------------3-3-3---0-0-0----x-x-x--|
* * * * * * * * * * * * * * * * * * * * * * * *
Guitar 2 - Start playing the second time over Guitar 1’s chord progression.
e-------------------|
B-------------------| X A lot, listen to the song to know how many times.
G--7--10--7------7--|D------------10-----|
A-------------------|
D-------------------|
===== Chorus =====
Guitar 1
e--------------------------| e------------|
B--------------------------| B------------|
G--------------------------| X 6 Then: G--5--5--5--|D--------3-----------------| D--5--5--5--|
A------0---5-5---/7-5-3-3--| A--3--3--3--|
D--0-3---------------------| D------------|
Guitar 2 - They play this bit live but you can’t here it very well on the recording.
This only takes as long as the main riff played once, play it as many times as the mainriff.

e----------------------------------------------------------| e------------|
B----------------------------------------------------------| B------------|
G--14-14-14-14-14-14-14-14-14-15--12-12-12-12-12-12-12-12--| X 6 Then: G--5--5--5--|D--x--x--x--x--x--x--x--x--x--x---x--x--x--x--x--x--x--x---| D--5--5--5--|
A--12-12-12-12-12-12-12-12-12-13--10-10-10-10-10-10-10-10--| A--3--3--3--|
D----------------------------------------------------------| D------------|
===== Verse =====
===== Chorus =====
===== Break Down =====
Guitar 1...
tracking img