Acordes

Solo disponible en BuenasTareas
  • Páginas : 8 (1819 palabras )
  • Descarga(s) : 0
  • Publicado : 22 de agosto de 2010
Leer documento completo
Vista previa del texto
EL DUELO (LA LEY)

Aquí va el intro :

Em CM Em
E—-0----------------------------------------------------
B—-0----------------------------------------------------
G—-0---0-----------------------------0--2---------------
D—-2-----4-2--------------------0--2-------2/4----------
A—-3---------0/2-0--2--3—-2---3-------------------------E—-3----------------------------------------------------

E—-0---0----0----0----0----0----0--------
B---0---0---1----0----1----0----1--------
G----0------0----0----0----0----0--------
D-----------2----2----2----2----2—0—-2-4-
A-----------3----2----3----2----3--------
E-----------3----0----3----0----3--------

E--------------------------------------------B----------3/5—-3------3-3/5—-3--------------
G—-0-2—-4---------4—-5-----------4—-5--------
D--------------------------------------------
A--------------------------------------------
E--------------------------------------------

Em Con una lagrima de fe sobre tu piel
E---------------------------------------------------
B-------3----3----3----------3----3----3------------G------0-0----0----0--------0-0----0----0-----------
D-----2---2----2----2------2---2----2----2----------
A---------------------------------------------------
E---0--------------------0--------------------------

CM olvide la grieta que dejo tu amor
E---------------------------------2---3---2-----0---
B-------3---3---3----------3---3—-3---5---3—-3------
G------0-0---0---0--------0-0----------------4------D-----2---2---2---2------2---2----------------------
A---3------------------3----------------------------
E---------------------------------------------------
Em pero ese instinto taurino de tu ser
E---------------------------------------------------
B-------3----3----3-----------3----3----3-----------
G------0-0----0----0---------0-0-------0-0---0------D-----2---2----2----2-------2---2-----4----4--------
A---------------------------------------------------
E---0---------------------0-------------------------

CM me obligo azotarte huuuuu tiernamente
E-------0----0----0--------0----------0-------------
B------1-1----1----1-------1----------1-------------
G-----0---0----0----0------0----------0-------------
D--------------------------2----------2-------------A---3----------------------3----------3-------------
E--------------------------3----------3-------------



G D Am C
Sin dolor no te haces feliz (ver fig.1.4)
G D Am C
Sin dolor no te haces feliz (ver fig.1.6)
G Bm Am C G bm Am C
Sin amooooooooor (ver fig.1.5)
Em
No sufres mas (verfig.2.0)


Figura 1.4
E--------------------------------------------------------
B-------------1-0—3/5-3-1-0-1—3/5-3-1-0-1-0—-------------
G-----------0---------------------------------2----------
D-------0/2--------------------------------------2/3—-2--
A—-2—3---------------------------------------------------
E--------------------------------------------------------Figura 1.6
E--------------------------------------
B---3/5—-3—-1—-0—-1—-0-----------------
G------------------------2—-0----------
D------------------------------0/2—-0—-
A--------------------------------------
E--------------------------------------

Figura 1.5
E--------------------------------------
B--------------1—0---------------------
G------------0-------------------------D-------0/2----------0-4-2-0-2-0-------
A---2-3---------------------------3—2—-
E--------------------------------------

Mitad de la canción figura 2.0
E--------------------[12]------------------------------
B-----------------------[12]---------------------------
G------------------------------------------------------
D--------12—-9----------------------12—-9--------12—-9-...
tracking img