Alex campos

Solo disponible en BuenasTareas
  • Páginas : 5 (1172 palabras )
  • Descarga(s) : 0
  • Publicado : 25 de febrero de 2011
Leer documento completo
Vista previa del texto
Acorde original: C

INTRO
C G Pulof Am Pulof
e-----------0--- -------------1--0---- -----------2--0-----
B--------1------ ----------3---------- --------1-------1---
G-----0--------- -------0------------- -----2--------------D--------------- --------------------- --------------------
A--3------------ --------------------- --0-----------------
E--------------- ---3----------------- --------------------

G C G Pulof
e-------------0------ -----------0---------------1--0------
B-------3--------3--- --------1------- --------3------------
G----0-----0--------- -----0---------- -----0---------------
D-------------------- ---------------- ---------------------
A-------------------- --3------------- ---------------------
E-3------------------ ------------------3------------------
Am Pulof G
e-----------2--0----- ----------------------------------------
B--------1--------1-- ------0---1---1---3---3---3---3---------
G-----2-------------- ----0---0---0---0---0---0---0---0-------
D-------------------- ----------------------------------------A--0----------------- ----------------------------------------
E-------------------- -3--------------------------------------

C G
//ME ROBASTE EL CORAZON
Am C G
TE ADUEÑASTE DE MI VIDA
C G AmDE TUS LABIOS BROTAN MIEL
C G
Y TU DULCE VOZ ME ARRUYA//


CORO I
C G
//ES HERMOSO ESTAR DORMIDO
Dm Am C
CON EL CORAZON DESPIERTOG
ES TAN AGRADABLE VERTE
Dm Am
Y TAN DULCE ESCUCHAR//


CORO II
C G
TU SOLO TU
Dm Am
ESPERANZA AMADO MIO
C GESTAS EN LOS COLORES
Dm Am
DE LAS ROSAS QUE FLORECEN
C G
ESTAS EN MIS CANCIONES
Dm Am
EN EL VIENTO Y EL MAR


----------------------INTRO-------------------//ME ROBASTE EL CORAZON
AUNQUE YO QUEDE EN EL OLVIDO
Y ME GUSTA ESTAR ASÍ
CON EL CORAZÓN ENAMORADO DE TI//


CORO I
CORO II

LA CANCIÓN TERNINA ASÍ:

C G PulofAm Pulof
e-----------0--- -------------1--0---- -----------2--0-----
B--------1------ ----------3---------- --------1-------1---
G-----0--------- -------0------------- -----2--------------
D--------------- --------------------- --------------------
A--3------------ ---------------------...
tracking img