Algo

Solo disponible en BuenasTareas
  • Páginas : 6 (1468 palabras )
  • Descarga(s) : 9
  • Publicado : 8 de abril de 2010
Leer documento completo
Vista previa del texto
ANGEL DE HIELO
Intro

4/------7-8-7--5---7-8-7---10------12-----
5/----5----------8-----------10------12---
6/-----------------------------8-------10-


4/------7-8-7--5---7-8-7---8-----10-------5/----5----------8-----------10-----12----
6/-----------------------------10------12-

(BIS)

Luego empieza a cantar la chera de anabantha!!!

REm FAM DOM REm
Ahhhaaaaaaaaahhhaaaaa..... uhhhhhhhuuuuuuhhhhhhhuuhhhhh
(Bis)REm
Un sendero
FAM
En ti y en mí
DOM
Como en un sueño
Rem
Te atrapé
REm FAM
Dulcemente hieres
DOM REm
Como una estaca al corazón

SOLm REmVeo tus lágrimas granizar
SOLm REm
Mil diamantes de tempestad
DOM REm
Es tu alma crisálida
DOM REm
Blanca magia me encantará
REm FAM DOM REm
Tus misterios... cuéntameSolo....

Solm Rem
Veo mis manos tan pálidas
Solm Rem
Esperando acariciar
DoM Rem
Una noche tus alas
DoM Rem
Blanca magia me alcanzaráRem FaM DoM Rem
Dulces sueños, dulce fin.


SOLm REm
Veo tus lágrimas granizar
Solm Rem
Mil diamantes de tempestad
DoM Rem
Es tu alma crisálida
DoM RemBlanca magia me encantará
Rem FaM DoM Rem
En un beso... eres secreto


BRAZOS DE HURACAN

Bb C Am Dm
Bb C Am (arpegio desentente en el acorde de Dm)

Bb C
Hoy se que en esta noche tu alma
Am Bb C / Dm
Me Arrastrare en tus brazos de huracan
Bb C
La llama de mispensamientos
Am Bb C / Dm
Un soplo de tu aliento acabara.

(los acordes se repiten de la misma manera que en la primera estrofa)

Sera que caigo al presipicio
Sera que un ángel me enseño a volar
Los Restos que dejo tu olvido
son canticos que duele escuchar

Bb C
En un momento estas aqui
Am Dm
y en un segundo te perdi
Bb C
en este mundo descubriAm Dm
Si hay algo eterno es junto a ti
Bb C
Al fin tus ojos cerraran
Am Dm
para mirar dentro de mi
Bb C
Detras del rastro del caudal
Am Dm
pues es lo que llore por ti

BRUJA
Intro: E5---- D#---- G5---- C5-- B--
punteo intro:

e-------------------2---------5/7-----5-I
B-3/5---------3--5-----5--3-------------IG---------------------------------------I
D-------------—------------------------—I
A---------------------------------------I
E---------------------------------------I

e--------2---------5/7-----5-I
B--3--5-----5--3-------------I
G----------------------------I
D--—------------------------—I
A----------------------------I
E----------------------------I

e--------2---------5/8--7----8--5--------I...
tracking img