Almost easy tab

Solo disponible en BuenasTareas
  • Páginas : 9 (2030 palabras )
  • Descarga(s) : 0
  • Publicado : 8 de septiembre de 2012
Leer documento completo
Vista previa del texto
almost easy tabs


*I was playing along with this song, and it's definently tuned down to Db.
*I tabbed this all by ear.

*The solo is almost dead on. It's typical sweeps that Syn always uses.
*The only part I'm missing is the Rhythm Guitar for the first halfof the solo. So if anybody knows what the Rhythm Guitar Chords are during
the first half, then e-mail me the tab, or leave it in the comments of this
tab. Make sure you tab it out in Db Ab Db Gb Bb Eb.

*I'll try to work on the other new Avenged Sevenfold songs, and get
them on here.-------[travis]-------

Tuning: Drop D, down half step (Db Ab Db Gb Bb Eb) (low to high) [For all Guitars]


Key:

b = bend
h = hammer on
p = pull off
... = palm mute
/ = slide down\ = slide up
x = muffled string (lightly mute with your fret hand)
1 = full step bend
.5 = half step bend
1.5 = one and a half step bend
() = bring bent note to normal
___ = which notes are downstroke or upstroke
V = downstroke
^ = upstroke~ = vibrato or ring out.


*The numbers above the b's are the steps you bend that note.*


++++++++++++++++++++++++++++++++++++++++++++
Intro: Bend all of the bends slowly. Syn might be pushing down the wammy bar lightly
the bendor he's just releasing the bend slowly. Either way works.





Guitar 1:
1 1 1.5
eb|-/13--12----------------/13--12---------15b----/13--12----------------/13--12--18--17--17\-|Bb|---------13\-----13b------------13\--------------------13\----13b--------------------------|
Gb|------------/12---------------------/12-------------------/12------------------------------|
Db|-------------------------------------------------------------------------------------------|Ab|-------------------------------------------------------------------------------------------|
Db|-------------------------------------------------------------------------------------------|

Guitar 2: Listen for rhythm. Play this twice over the intro.
eb|---------------------|
Bb|---------------------|
Gb|-7---5---------------|Db|-7---5---5---7---8---|
Ab|-5---3---5---7---8---|
Db|---------5---7---8---|

++++++++++++++++++++++++++++++++++++++++++++++
Riff:
Guitars 1 and 2:
.5 .5eb|---------------------------------------------------------------------|
Bb|---------------------------------------------------------------------|
Gb|---------------------------------------------------------------------|
Db|-7\-------------8\6-----6\3-----6/7----------------------------------|
Ab|-5\-------------6\4-----4\1-----4/5----------------------------------|...
tracking img