Alter

Solo disponible en BuenasTareas
  • Páginas : 3 (534 palabras )
  • Descarga(s) : 0
  • Publicado : 31 de agosto de 2010
Leer documento completo
Vista previa del texto
Gtr. 1 Intro/ Verse

e------------------------------------------------------|
b----------3--------3--------3--------3-------3-----3--|g-------------------------------------------0------0---|
d-------0---------0--------0--------0-----0------0-----|a-----0---------0--------0--------0-----3------3-------|
d---0---------0--------3--------3----------------------|


--------------------------------|--------------------------------|
------0---------0---------------|
----0---0-----0---0-------------|
--------------------------------|--5---------3-------------------|

Gtr. 2 Intro/Verse

----------12---------12------|------15----------15---------|
--14----------14-------------| repeat as necessary
-----------------------------|
-----------------------------|-----------------------------|

Pre Chorus

------------------------------|--6-----------8---------------|
--5-----------7---------------|
--3-----------5---------------|
--3-----------5---------------|--3-----------5---------------|

Chorus

----------------------------------------------|
----------------------------------------------|-------------------------5---5---5-5-5--5-----|
-0--0--0--0-0-0--0--0----5---5---5-5-5--5-----|
-0--0--0--0-0-0--0--0----3---3---3-3-3--3-----|...
tracking img