Amar en el campo

Solo disponible en BuenasTareas
  • Páginas : 3 (574 palabras )
  • Descarga(s) : 0
  • Publicado : 10 de septiembre de 2010
Leer documento completo
Vista previa del texto
e------|
b------|
g------| Intro
d------|
a------|
E—1/---|Dm/F F G G6 G
e--1-1--1----3-3--3-3--3----|
b--3-3--1----3-3--5-5--3----|
g--2-2--2----4-4--4-4--4----| fig.1d--3-3--3----5-5--5-5--5----|
a---------------------------|
E---------------------------|

C Em Ame--3--------7--------5--------|
b--5--------8--------5--------|
g--5--------9--------5--------| fig.2
d--5--------9----5-6-7--------|a--3----5-6-7-----------------|
E-----------------------------|

C Em Ame--3--------7--------5----6-6-6-6-|
b--5--------8--------5----8-8-8-8-|
g--5--------9--------5----7-7-7-7-| fig.3
d--5--------9----5-6-7----5-5-5-5-|a--3----5-6-7---------------------|
E---------------------------------|

C Em Am
e--3--------7--------5---3h5-----|b--5--------8--------5-------5p3-|
g--5--------9--------5-----------| fig.4
d--5--------9----5-6-7-----------|a--3----5-6-7--------------------|
E--------------------------------|


Intro x2

Fig.1
No quierovestirme,
Fig.1
me quiero quedar,
Fig.1
y me estoy cansando,
Fig.1
de la humanidad....
tracking img