Analisis literario

Solo disponible en BuenasTareas
  • Páginas : 3 (743 palabras )
  • Descarga(s) : 0
  • Publicado : 24 de noviembre de 2011
Leer documento completo
Vista previa del texto
Red hot chili peppers-californication
intro:
G:--------9-9--9-7h9h7--------7-7----
D:---7-7--------------10-10------10--A:--------------------------8--------
E:-----------------------------------


G:--------9-9--9-7h9h7--------10-10--D:---7-7--------------10-10--------7-
A:--------------------------8--------
E:-----------------------------------

versoG:-----------------------------
D:-----------------------------
A:--3-3----------5-5-----------
E:------3-3-1-1----------------coro
G:-------------------------------------------------
D:--7-7-7-7-7-7-7-7-7--9-10-----------------10-9---A:--------------------------8-8-8-8-8-8-8-8-----10-
E:-------------------------------------------------G:-----------------------------------------------------
D:--7-7-7-7-7-7-7-7-7--9-10-----------10/14 14-12-10-9-
A:--------------------------8-8-8-8-8------------------E:-----------------------------------------------------


G:-------------------------------------------------D:--7-7-7-7-7-7-7-7-7--9-10-----------------10-9---
A:--------------------------8-8-8-8-8-8-8-8-----10-
E:-------------------------------------------------G:-----------------------------------------------------
D:--7-7-7-7-7-7-7-7-7--9-10-----------10/12-12-10-9----
A:--------------------------8-8-8-8-8--------------10--...
tracking img