Analista de sistemas

Solo disponible en BuenasTareas
  • Páginas : 3 (557 palabras )
  • Descarga(s) : 0
  • Publicado : 1 de mayo de 2011
Leer documento completo
Vista previa del texto
(1ª parte)
E9
E|--------------------2---------------------|
B|--5-----4-----5-----------5---------------|
G|----4-----4-----4-----4-----4-------------|D|------2-----2-----2-----2-----2-----------|
A|------------------------------------------|
E|--0---------------------------------------|

(2ª parte)
A9
E|------------------------------------------|B|--5-----4-----0---------------------------|
G|----4-----4-------------------------------|
D|------2-----2-----------------------------|
A|--0---------------------------------------|E|------------------------------------------|

(1ª parte)
E9
E|--------------------2---------------------|
B|--5-----4-----5-----------5---------------|
G|----4-----4-----4-----4-----4-------------|D|------2-----2-----2-----2-----2-----------|
A|------------------------------------------|
E|--0---------------------------------------|

(2ª parte com alteração)
A9E|------------------------------------------|
B|--5-----4-----0---------------------------|
G|----4-----4-------------------------------|
D|------2-----2---------2h4-----------------|
A|--0---------------2h4---------------------|E|------------------------------------------|

(primeira parte)

(primeira estrofe)
E
Sempre quando chega a noite
A9
Estrelas vem iluminar
E
E me fazem sonhar
A9
Imaginar você aquiB4
Preciso de você
E9 A9
Só pra me guiar

(dedilhado primeira estrofe)

1ª parte)
E A9
E|---0---0---0------0---0---0---------------|B|---0---0---0------0---0---0---------------|
G|-----1---1---1------1---1---1-------------|
D|------------------------------------------|
A|----------------0-------------------------|E|-0----------------------------------------|

E A9
E|---0---0---0------0---0---0---------------|
B|---0---0---0------0---0---0---------------|
G|-----1---1---1------1---1-----------------|...
tracking img