And i love her (tab)

Solo disponible en BuenasTareas
  • Páginas : 3 (508 palabras )
  • Descarga(s) : 0
  • Publicado : 9 de noviembre de 2011
Leer documento completo
Vista previa del texto
And I Love Her
(Lennon/McCartney)


Intro:
F#m E6 F#m-|-------------------------------------------------------------
-|--------------------------------------------------------------|-------------------------------------------------------------
-|-------------------------------------------------------------
-|------7--6--4---------7--6--4---------7--6--4-----------------|---7---------------7---------------7-------------------------


Verse 1:
F#m C#m F#m C#mI give her all my love That`s all I do

F#m C#m A B7
And if you saw my love You`d love hertoo

E
And I love her


Verse 2:
F#m C#m-|----------9--------------------9------------9-------------9----------
-|------10-----10------10------10-----9-----9-----9-----9--------|--11-------------11------------------9-----------9----------------
-|--------------------------------------------------------------|-------------------------------------------------------------
-|-------------------------------------------------------------
She gives me every thingF#m C#m
-|-----------9----------------9------------9-----------9----------
-|------10----10------10----10----9----9-----9-----9-------...
tracking img