And i love her

Solo disponible en BuenasTareas
  • Páginas : 5 (1178 palabras )
  • Descarga(s) : 0
  • Publicado : 15 de junio de 2011
Leer documento completo
Vista previa del texto
And I Love Her
(Lennon/McCartney)

Intro:
F#m E6 F#m
-|-------------------------------------------------------------
-|-------------------------------------------------------------
-|-------------------------------------------------------------
-|--------------------------------------------------------------|------7--6--4---------7--6--4---------7--6--4----------------
-|---7---------------7---------------7-------------------------

Verse 1:
F#m C#m F#m C#m
I give her all my love That`s all I do

F#m C#m A B7
And if you saw my love You`d love her too

E
And I love her

Verse 2:
F#m C#m-|----------9--------------9------------9-----------9----------
-|------10-----10------10-----10-----9-----9-----9-----9-------
-|--11-------------11-------------9-----------9----------------
-|-------------------------------------------------------------
-|-------------------------------------------------------------
-|-------------------------------------------------------------
She gives me everything

F#m C#m
-|----------9--------------9------------9-----------9----------
-|------10-----10------10-----10-----9-----9-----9-----9-------
-|--11-------------11-------------9-----------9----------------
-|-------------------------------------------------------------
-|--------------------------------------------------------------|-------------------------------------------------------------
And tender ly

F#m C#m
-|----------9--------------9------------9-----------9----------
-|------10-----10------10-----10-----9-----9-----9-----9-------
-|--11-------------11-------------9-----------9----------------
-|--------------------------------------------------------------|-------------------------------------------------------------
-|-------------------------------------------------------------
The kiss my lover brings

A B7
-|---------9-------------9--------------11---------------------
-|-----10-----10-----10-----10------10------10-----------------
-|--9-------------9-------------11------------------------------|-------------------------------------------------------------
-|-------------------------------------------------------------
-|-------------------------------------------------------------
She brings to me

E6
-|----------11------------9-----------9-----------9------------
-|------10------10-----9-----9-----9-----9-----9-----9----------|--11--------------9-----------9-----------9-----------9------
-|-------------------------------------------------------------
-|-------------------------------------------------------------
-|-------------------------------------------------------------
And I love her

Middle:
C#m B C#m G#m
A love like ours could never die
C#m G#m B7
As long as Ihave you near me

Verse 3:
F#m C#m F#m C#m
Bright are the stars that shine Dark is the sky

F#m C#m A B7
I know this love of mine Will never die

E
And I love her

Guitar Solo:

Gm Dm Gm Dm Gm Dm-|-----------------------------------------------------------------------
-|-----------------------------------------------------------------------
-|-----------9--7/10---------------9--97-----------------9--7/10--------
-|--5--7--8---------------5--7--8----------------5--7--8-----------------
-|-----------------------------------------------------------------------
-|-----------------------------------------------------------------------

Bb C7...
tracking img