Artes del mundo antiguo

Solo disponible en BuenasTareas
  • Páginas : 5 (1157 palabras )
  • Descarga(s) : 0
  • Publicado : 25 de noviembre de 2010
Leer documento completo
Vista previa del texto
Enter Sandman - Metallica

[intro]
-------------------------------------------------
-------------------------------------------------
------------------------------------------------- repeat 4 times
---------5----------------------5----------------
------7--------------7-------7--------------7----
---0--------6--5----------0--------6--5----------

[destortion]

E5 / / F5 E5 / /F5 E5 / / F5 repeat several times

E5 / / F5 E5 / / A#5 E5 / / F5 repeat several times

E5 / / A#5 A5 E5 / / A#5 A5

E5 / / A#5 A5 G5 E! F#5 E! F#5 G5 F#5

Note : E! is just an open E played on the low E string
or you can play it like this

---3--0--2--0--2--3--2--0---------

[end intro]
[couplet]

E5 / / / / / / F5 E5 / / / / / / F5E5 / / / / / / G5 E! F#5 E! F#5 G5 F#5

E5 / / / / / / F5 E5 / / / / / / F5
E5 / / / / / / G5 E! F#5 E! F#5 G5 F#5

-------------------------------------------------
-------------------------------------------------
---------2----------------------2----------------
------4--------------4-------4-------------4-----
------------3--2-------------------3--2-------------2----------------------2----------------------

-------------------------------------------------
-------------------------------------------------
---------2---------------------------------------
------4--------------4---------------------------
------------3--2---------------------------------
---2--------------------------0------------------

--------------------------------------------------------------------------------------------------
---------2---------------------------------------
------4--------------4---------------------------
------------3--2---------------------------------
---2--------------------------0------------------

-------------------------------------------------
--------------------------------------------------------------------------------------------------
---5-----4-----4--5--4--2------------------------
---5-----4-----4--5--4--2------------------------
---3--0--2--0--2--3--2--0------------------------

E5 / / A#5 A5 E5 / / A#5 A5

E5 / / A#5 A5 G5 E! F#5 E! F#5 G5 F#5

E5 / / A#5 A5 E5 / / A#5 A5

E5 / / A#5 A5 G5 E! F#5 E! F#5 G5 F#5
^^^^^^^^^^^^^^^^^^^^^^^Solo while playing ^^^^ :

------------------------------------B--15S\------
-12----------------P--------------14B--15S\------
-12--------12-14-14-12----12-14---14---------------
--------14-------------14--------------------------
---------------------------------------------------
---------------------------------------------------

note : P := 14 pull off 12
B := use yourtremelo to bend them both slowly up
S := slowly slide both down.

I hope I was a little helpful.

C.W.G.M.ENDERS@KUB.NL

-------------

Repost - credit to original tablaturers :)

###### NetTab: "Enter Sandman" by Metallica #####

Intro: (Play 12 times)
======

1|---------------------------------------------------------------------------2|---------------------------------------------------------------------------
3|---------------------------------------------------------------------------
4|------------5--------------------------------------------------------------
5|--------7---------------7--------------------------------------------------
6|----0-----------6---5------------------------------------------------------

Rhythm Fill 1:
==============E5

PM------------------| sl PM----------------------| sl

1|---------------------------------------------------------------------------
2|---------------------------------------------------------------------------
3|---------------------------------------------------------------------------
4|---------------------------------------------------------------------------...
tracking img