Asdasa

Solo disponible en BuenasTareas
  • Páginas : 14 (3277 palabras )
  • Descarga(s) : 4
  • Publicado : 7 de junio de 2010
Leer documento completo
Vista previa del texto
1st Guitar Solo
F
Gtr II
W
|
/

Gtr V
Q. +S +S +E S +S +E +S S
|--------------------------------8------------------|
|-8pb10======(10)r(8)b10==(10)-(10)-(10)-(10)r(8)p6-||---------------------------------------------------|
|---------------------------------------------------|
|---------------------------------------------------|
|---------------------------------------------------|
|
| Gtr IV
| E E E E +E S S Q|-------------1-----------(1)-----------------------|
|----------1----------------------------------------|
|--------2-------------------------------2----------|
|-3----------------------------------3--------------|
|------------------------------3--------------------||---------------------------------------------------|


Dm C
Q H. W
| | |
/ / /~~~ ~~~
S +S +Q +S +S +E S +S +S +S S +S +Q. E +Q S +S +E
|-----------------------------------8-----------------------|-----------8-(8)-----------------||-8b10==(8)-(8)----(8)r(8)b10==(8)-(8)-(8)-(8)r(8)-5b7==(5)r|=(5)--------------5b6r(5)b6-(5)--|
|-----------------------------------------------------------|---------------------------------|
|-----------------------------------------------------------|---------------------------------|
|-----------------------------------------------------------|---------------------------------||-----------------------------------------------------------|---------------------------------|
|
| E E E E +E S S Q E E a Q +Q. S S
|-------------------1----------(1)--------------------------|---------------------------------||---------------3---------------------------3---------------|--1------------------------------|
|------------2--------------------------2-------------------|-----0---------------------------|
|-0---------------------------------0-----------------------|-------0h2---(2)-------------0h2-||-----------------------------------------------------------|---------------------------------|
|-----------------------------------------------------------|---------------------------------|


F
+W W
| |
/ /~~~





Q. S S S S S a S E E Q. +S +S +E S +S +E +S S
|---------------------------|-----------------------------8----------------|
|--5--------------8---------|-8pb10======(8)r(8)b10==(8)-(8)-(8)-(8)r(8)p6-|...
tracking img