Asdfghj

Solo disponible en BuenasTareas
  • Páginas : 4 (827 palabras )
  • Descarga(s) : 0
  • Publicado : 21 de agosto de 2012
Leer documento completo
Vista previa del texto
Malón, Cancha de lodo: Tablatura para Guitarra

Página 1 de 3

Tablatura para Guitarra de Malón: Cancha de lodo

Conexión · Inscripción

acordes | evolución | recursos | comunidad |enlaces | extras

buscar

Artista o Canción

Letras y Acordes
Pantalla Completa
Imprimir
Versión Texto
Añadir Favorito
Otras Versiones
Mostrar Diagramas
Desfile Automático

Malón
Canchade lodo (TAB)

malo0011

AUTOR: Malón
ALBUM: Espiritu Combativo

Enviado por Alexis

Envía el tono de "Cancha de lodo" a tu celular/móvil

Manipular Acordes
Formato del Texto

calidad:INTRO:
Em
e|--------------------|
b|--------------------|
g|-------------0------|
d|------2----2-----2--|
a|----2----3-----3----|
e|--0-----------------|

Em
TENGO LAS MANOS CANSADASEm
DE HACER LADRILLOS AJENOS
Em
MI SANGRE SE ESTÁ MEZCLANDO
Em
CON EL BARRO DEL PISADERO
F5# G5
e|-----------------|
b|-----------------|
g|-----------------|
d|----4-----5-5-4--|a|----4---5--------|
e|--2----3---------|

HAY DÍAS QUE ME PARECE
CHAPALEAR EN UN CHIQUERO
Como intro
Em
MIRANDO AQUELLAS CASONAS
Em
QUE SE HAN HECHO CON MI ESFUERZO
Distorcionado y constacato:
e|---------------------------------------|
b|---------------------------------------|
g|-------------0------------------0------|
d|------2----2-----2--------2---2-----2--|a|----2----3-----3------------3-----3----|
e|--0-----------------0-0-0--------------|

CADA DÍA QUE PASA
SE ME VIENE ABAJO UN SUEÑO
ES PATRÓN NO ME SUJETA
MAS SIEMPRE LE ESTOY DEBIENDO

F5# / G5 / C5
A5 /G5 / F5#
F5# / G5 / C5
Em / F5# / G5
F5# / G5 / C5
A5 / G5 / F5#
F5# / G5 / C5
Em / F5# / G5

/ Em / F5# / G5
/ A5 / B5 / C5 / D5
/ Em / F5# / G5
/ A5 / B5 / C5 / D5 / E5Distorcionado y con stacato:
e|---------------------------------------|
b|---------------------------------------|
g|-------------0------------------0------|
d|------2----2-----2--------2---2-----2--|...
tracking img