Asking alexandria y mas

Solo disponible en BuenasTareas
  • Páginas : 17 (4211 palabras )
  • Descarga(s) : 0
  • Publicado : 13 de septiembre de 2012
Leer documento completo
Vista previa del texto
The final episody

--------------------------------------------------------------------------|
--------------------------------------------------------------------------|
--------------------------------------------------------------------------|-0~~~~~~~~~~~~~~~~~~~~-0~~~~~~~12///////////////0-------------------------|

----------------------------------------|
----------------------------------------|
----------------------------------------|
-00000000000000-------------------------|
O......M......G.....----------------------------------------------|
----------------------------------------------|
-----------------8----7---10--8--7h8----------|
-00000000000000----00--00---0--0--------------|

----------------------------------------------|
-----------------7----------------------------|----------------------10----8--10---8---------|
-88888888888888----00----00---0---0-----------|

----------------------------------------------|
----------------------------------------------|
------------------10----8---7--8--7-----------|
-77777777777777------00--00--0--0-------------|----------------------------------------|
----------------------------------------|
----------------------------------------|
-00000000000000-------------------------|
O......M......G.....

----------------------------------------------|----------------------------------------------|
-----------------8----7---10--8--7h8----------|
-00000000000000----00--00---0--0--------------|

----------------------------------------------|
-----------------7----------------------------|
----------------------10----8--10---8---------|-88888888888888----00----00---0---0-----------|

----------------------------------------------|
----------------------------------------------|
------------------10----8---7--8--7-----------|
-77777777777777------00--00--0--0-------------|-------------------------------------------------------|
-------------------------------------------------------|
-8----7----10---8---7h8-8----7----10---8---7h8---------|
---00--00-----0---0--------00--00-----0---0------------|-------------------------------------------------------|
-7-----------------------------------------------------|
-------10-----8----10----8--10-----8----7---8---7------|
---00-----00----0-----0---------00---00---0---0--------|

-------------------------------------------------------|-------------------------------------------------------|
-8----7----10---8---7h8-8----7----10---8---7h8---------|
---00--00-----0---0--------00--00-----0---0------------|

-------------------------------------------------------|
-7-----------------------------------------------------|
-------10-----8----10----8--10-----8----7---8---7------|...
tracking img