Aun estas en mis sueños pisadas

Solo disponible en BuenasTareas
  • Páginas : 5 (1022 palabras )
  • Descarga(s) : 35
  • Publicado : 13 de abril de 2010
Leer documento completo
Vista previa del texto
INTRO:

G#m B F# C#m / B G#m B F# E/F# E/F#
G|------------------------------|------------------------|
D|------------------------------|------------------------|
A|------2-2------4-4-4-4-4-4/2--|-----2-2----------------|E|--4-------2-------------------|--4------2---0/2---0/2--|


G#m B F# C#m / B G#m B F#
G|------------------------------|------------------------|
D|------------------------------|------------------------|
A|------2-2------4-4-4-4-4-4/2--|-----2------------------|E|--4-------2-------------------|--4------2--------------|


Verso 1:

Hoy desperté con un montón de marcas en mi piel
E B
G|-----------------------|-----------------------|
D|-----------------------|-----------------------|A|-----------------------|--2---2-2----2---2-2---|
E|--0---0-0----0---0-0---|-----------------------|

alguien por la noche me las dejó...
C#m G#m F#
G|-----------------------|-----------------------|
D|-----------------------|-----------------------|A|--4---4-4--------------|-----------------------|
E|-------------4---4-4---|--2---2-2----2---2-2---|

Quiero saber si esto fue la magia de tus labios...
E B
G|-----------------------|-----------------------|
D|-----------------------|-----------------------|A|-----------------------|--2---2-2----2---2-2---|
E|--0---0-0----0---0-0---|-----------------------|

Hay perfume de mujer flotando aqui...
C#m G#m C#m G#m
G|---------------------------|-----------------------|
D|---------------------4h6p4-|-----------------------|A|--4---4-4------------------|--4---4-4--------------|
E|-------------4---4-4-------|------------4---4--4---|

Pre-Coro:
El conjuro de un cuento de amor ya me atrapó lo
E B C#m G#m F#
G|--------------------------------------------------|D|--------------------------------------------------|
A|--------------2---------------4-------------------|
E|------0------------------------------2-------2----|

puedo sentir
B D#m
|------------------------|
|------------------------|
|--2-----6-6-6-6-6-6-6-6-||------------------------|


CORO:

Y por las noches puedo sentir su calor
G#m E B F#
G|-----------------------|-----------------------|
D|-----------------------|-----------------------|A|-----------------------|--2---2-2--------------|
E|--4---4-4----0---0-0---|-------------2---2-2---|

Su dulce magia, me hace perder la razón
G#m E B D#m
G|-----------------------|-----------------------|
D|-----------------------|-----------------------|...
tracking img