Banana

Solo disponible en BuenasTareas
  • Páginas : 4 (837 palabras )
  • Descarga(s) : 0
  • Publicado : 21 de diciembre de 2011
Leer documento completo
Vista previa del texto
Promise-Slash

Tuning:


e|-----------------------|
B|-----------------------|G|-----------------------|
D|-----------------------|
A|-6~-------------6~-5~--|
E|------8~---8~----------|1/2
e|----------------------------------------------------------------|B|----------------------------------------------------------------|
G|----------------------------------------------------------------|
D|-----5-8-5-------------5---3-----------5---5b-------5-----------|A|---6-------6-8-6---3-6---6---6-----3-6---6----6---6---6-8-5---5-|
E|-8---------------5-------------5-4--------------6-----------7---|

ORe|-----------------------------------------------------------------|
B|-----------------------------------------------------------------|G|-----0-3-0-------------0---------------0---1p0-------0-----------|
D|---1-------1-3-1-----1---1-3-1-------1---1-----1---1---1-3-0---0-|A|-3---------------0-3-----------0---3-------------1-----------2---|
E|---------------------------------4-------------------------------|

Chords [Verse]
Listento the track to get the correct rhythm

e|---| |---| |---| |-----|
B|---| |---| |---| |-----|
G|---| |---| |---| |-----|D|-5-| |-5-| |-5-| |-5-5-|
A|-6-| |-6-| |-6-| |-6-5-|
E|-8-| |-5-| |-4-| |-6-7-|

Chords [Again]
Again use...
tracking img