Bendita tu luz

Solo disponible en BuenasTareas
  • Páginas : 7 (1707 palabras )
  • Descarga(s) : 0
  • Publicado : 13 de marzo de 2011
Leer documento completo
Vista previa del texto
ACORDES:> G D Em C Am

ACORDES:> G D Em C Am

G D Em C D
e-----------|--------|------3-|----------------|
B-------3---|----3---|----0---|-----0-----3----|
G-----0---0-|--2---2-|--0-----|---0-----2------|D-----------|--------|--------|----------------|
A--3--------|0-------|2-------|-3-----0--------|
E-----------|--------|--------|----------------|

G D Em C D
e-----------|--------|------3-|----------------|
B-------3---|----3---|----0---|-----0-----3----|G-----0---0-|--2---2-|--0-----|---0-----2------|
D-----------|--------|--------|----------------|
A--3--------|-0------|2-------|-3-----0--------|
E-----------|--------|--------|----------------|


G D Em C D
e-----------|--------|------3-|----------------|B-------3---|----3---|----0---|-----0-----3----|
G-----0---0-|--2---2-|--0-----|---0-----2------|
D-----------|--------|--------|----------------|
A--3--------|-0------|2-------|-3-----0--------|
E-----------|--------|--------|----------------|
Bendito el lugar y el motivo de estar ahíG D Em C D
e-----------|--------|------3-|----------------|
B-------3---|----3---|----0---|-----0-----3----|
G-----0---0-|--2---2-|--0-----|---0-----2------|
D-----------|--------|--------|----------------|
A--3--------|-0------|2-------|-3-----0--------|E-----------|--------|--------|----------------|
Bendita la coincidencia



--------------------
|
G D Em C D |e--3-----3---|3-----2---|3-----3---|--------------||
B--3--3------|3--3------|0--0----0-|-----1-----3--||
G--0--0----0-|2--2----2-|0--0------|---0-----2----||
D--0---------|0---------|2---------|-------0------||
A--2---------|0---------|2---------|-3------------||
E--3---------|0---------|0---------|--------------||Se tocajunto
|Con 2 guitarras
|
G D Em C D G |
Bendito el reloj que nos puso puntual, ahí |
D Em C D |
Bendita seatu presencia |
|
--------------------




Em D C G
Bendito Dios por encontrarnos en el camino
Em DC D
Y de quitarme esta soledad de mí destino

Coro

G D
Bendita la luz
Am C
Bendita la luz de tu mirada
G D
Bendita la luz
Am C...
tracking img