Blablabla

Solo disponible en BuenasTareas
  • Páginas : 14 (3314 palabras )
  • Descarga(s) : 0
  • Publicado : 1 de noviembre de 2010
Leer documento completo
Vista previa del texto
Marea – Cuarto sin ventanas


Em Bm C D
Em Bm C D

ESTROFA: Em Bm C D
Em Bm
Desterrajado dao la vuelta prometido
C D
Si salgo de esta derribo el olvido
EmBm
Adios enrredadera por mi vida te lo pido
C D
Plegemos las velas, hay cien mil caminos

Meto en el saco tus versitos y los mios
Cien mil arrebatos, tu aroma de niño
Luna no te rias, dejame tranquilo prender mi candelaPUNTEO:

|-----------2--3-|----------2-3-5-|-3--2--------|-------------------|
|--------5-------|-3-3-3--5-------|-------3-3-5-|-5-3-5-3-3-0-3-0-0-|
|-4-4-4----------|----------------|-------------|-------------------|
|----------------|----------------|-------------|-------------------||----------------|----------------|-------------|-------------------|
|----------------|----------------|-------------|-------------------|

|-----------2--3-|----------2-3-5-|-3--2--------|-------------------|
|--------5-------|-3-3-3--5-------|-------3-3-5-|-5-3-5-3-3-0-3-0-0-||-4-4-4----------|----------------|-------------|-------------------|
|----------------|----------------|-------------|-------------------|
|----------------|----------------|-------------|-------------------|
|----------------|----------------|-------------|-------------------|

|-------5-7-8-10-8-7-5---5--------------------||-5-7-8----------------8---8-7-5-3-5-3-0-3-5--|
|---------------------------------------------|
|---------------------------------------------|
|---------------------------------------------|
|---------------------------------------------|


ESTROFA:Em Bm C DIntransigente, desbocado, remordido
Me cruzo de piernas, me muero en un grito
Mi media sonrisa le dice que a sido el rio
el que te quiere y te ha querido

A media luz campo a través sobre las olas
No mires mi niño voy a bailar sola
Esta vez no te vienes conmigoEl suelo que ves son mis pies

PUENTE:
Bm C
Repiquetean mis deditos en tu espalda
D
Lloran los relojes, el tiempo no anda
Bm C
Transpira el colchón de mi alma
DSi me pongo en pie, no se por qué


ESTRIBILLO:(Em Bm C D) |
Si tu supieras lo que es ver |
Al sol morirse de ganas | x 2
De dar de lleno en la pared |
De un cuarto sin ventanas |

Em D EmPUNTEO:

ESTROFA:
A cuatro patas cabilando me he escondido
Pa verla bañarse y ponerme encendido
Y tengo celos de la luna y del agua de rio, del rio

Lengua de trapo pa explicarte mi destino
No mires mi niña, mejor te lo escribo
Pero...
tracking img