Blablabla

Solo disponible en BuenasTareas
  • Páginas : 4 (837 palabras )
  • Descarga(s) : 4
  • Publicado : 18 de abril de 2010
Leer documento completo
Vista previa del texto
Clavado En
Un Bar
>
>
>INTRO
>
>Oh yeah!
>> B E B E F#
e--7--7-7---7--7-7----2-2-
B--7--7-7---7--7-7----2-2-
G--8--9-9---8--9-9----3-3-D--9--9-9---9--9-9----4-4-
A--9--7-7---9--7-7----4-4-
E--7--7-7---7--7-7----2-2-
La ultima vez se toca asi:
B E B E B E B G#e--7--7-7---7--7-7--------7--7--7---4-
B--7--7-7---7--7-7--------7--7--7---4-
G--8--9-9---8--9-9--------8--8--9---5-D--9--9-9---9--9-9--------9--9--9---6-
A--9--7-7---9--7-7--------9--9--7---6-
E--7--7-7---7--7-7--------7--7--7---4-

>1.-
> BF#
>Aqui me tiene bien clavado
> G#m
>Son tantas las penas en un bar
>E
>Brindando por tu amor
>
> RIFF A
>
e---------------------
B--------------6------G----5--57--7--------

> B F#m
>Aqui me tiene abandonado
>G#m
>Bebiendo tequila paolvidar
> E
>Y sacudirme hacia el dolor
>
>BRIDGE>
>B F# G#m
> Donde estas bendita?
>B F# G#m
> Donde te has metido?
>D#...
tracking img