Blackbird

Solo disponible en BuenasTareas
  • Páginas : 5 (1109 palabras )
  • Descarga(s) : 0
  • Publicado : 14 de noviembre de 2011
Leer documento completo
Vista previa del texto
E{|---------------------------|---------------------------------------|
B{|---0-------1-------3-------|---12-------12-----12-------12---12----|
G{|-------0-------0-------0---|-------0--------0-------0------0-----0-|
D{|---------------------------|---------------------------------------|
A{|-----------0-------2-------|---10-----10-------10-----10-----10----|E{|---3-----------------------|---------------------------------------|

E{|---------------------------|---------------------------------------|
B{|---0-------1-------3-------|---12-------12-----12-------12---12----|
G{|-------0-------0-------0---|-------0--------0-------0------0-----0-|
D{|---------------------------|---------------------------------------|A{|-----------0-------2-------|---10-----10-------10-----10-----10----|
E{|---3-----------------------|---------------------------------------|
Blackbird singing in the dead of night

E |-------------------------------|---------------------------------------|
B |---5------8-------7------10----|--8------8-----8----8------8-----8-----|
G |-------0------0-------0------0-|-----0------0----0-----0------0----0---|
D|-------------------------------|---------------------------------------|
A |---3------7-------5-------7----|--7-----7------7----6----6-------6-----|
E |-------------------------------|---------------------------------------|
Take these broken wings and learn to fly


E |------------------------------------------------------------|
B |---7-------8-------5--------5----5-----4------4------4------|
G|-------0-------0-------0------0-----0-----0------0------0---|
D |------------------------------------------------------------|
A |---5-------7-------3------3------3-----3----3--------3------|
E |------------------------------------------------------------|
All your life


E |------------------------------------------------------------|
B|---3--------3----3------2--------2---2-----1------1---1-----|
G |------0-------0-----0------0-------0---0------0-----0---0---|
D |-------------------------------------------0----0-----0-----|
A |---2------2------2------0-----0------0----------------------|
E |------------------------------------------------------------|
You were only waiting for this moment to a-


E|-----------------------------------|-------------------------------------|
B |---0-------0----0------5----3------|--2-------2----2----1------1----1----|
G |-------0------0----0-----0-----0---|------0-----0----0-----0-----0----0--|
D |-----------------------------------|--------------------0-----0-----0----|
A |-----------------------3----2------|--0-----0------0---------------------|
E|---3-----3------3------------------|-------------------------------------|
rise.
E |---------------------|
B |---0-------0---0-----|
G |------0------0----0--|
D |---------------------|
A |---------------------|
E |---3-----3-----3-----|

E{|---------------------------|---------------------------------------|
B{|---0-------1-------3-------|---12-------12-----12-------12---12----|G{|-------0-------0-------0---|-------0--------0-------0------0-----0-|
D{|---------------------------|---------------------------------------|
A{|-----------0-------2-------|---10-----10-------10-----10-----10----|
E{|---3-----------------------|---------------------------------------|
Blackbird singing in the dead of night

E |-----------------------------------|-------------------------------------|
B|---5-------8-------7------10-------|--8------8-----8----8------8-----8---|
G |-------0-------0-------0-------0---|-----0------0----0-----0------0----0-|
D |-----------------------------------|-------------------------------------|
A |---3-------7-------5-------7-------|--7-----7------7----6----6-------6---|
E |-----------------------------------|-------------------------------------|
Take these sunken eyes and learn...
tracking img