Blah

Solo disponible en BuenasTareas
  • Páginas : 2 (365 palabras )
  • Descarga(s) : 0
  • Publicado : 6 de septiembre de 2012
Leer documento completo
Vista previa del texto
PANDA SOLO A TERCEROS
EN AFINACION STANDARD

INTRO

e--------------------------------B------0-----0---------0-----0---
G----0-----0-----0---0-----0----0
D--2-----2-----2---1-----1----1--
A--------------------------------E--------------------------------

e-----------------------0------0-
B------0-----0--------0---0----0-
G----0-----0----0---0-------0--0-D--0-----0----0----------------2-
A-----------------4--------------
E--------------------------------e---------------------
B---------------------
G-4-44444444444-------
D-4-44444444444-------
A-2-22222222222-------E---------------------

VERSOS

e---00--------------------
B-4/00--------------------
G-4----111111-------------D-------------4444444-----
A-------------------------
E-------------------------e---00--------------------
B-4/00--------------------
G-4----111111-------------
D-------------1111222-----
A-------------------------E-------------------------

e---00--------------------
B-4/00--------------------
G-4----111111-------------D-------------4444444-----
A-------------------------
E-------------------------


e---00--------------------...
tracking img