Blink 182 tablatura

Solo disponible en BuenasTareas
  • Páginas : 2 (405 palabras )
  • Descarga(s) : 0
  • Publicado : 15 de mayo de 2011
Leer documento completo
Vista previa del texto
blink 182 canciones (tablatura ) categoria: musica
Author/Artist: blink 182
Title: adam´s song
Album: enema of the stateTranscribed by: diego benítez
Email: diegob120@hotmail.com

intro x2----------------------------------------------------------|
----------------------------------------------------------|
----------------------------------------------------------|---2------2-------2------2------2------2------2------2----|
-----3------3-------3------3------3------3------3------3--|-5------5-------3------3------1------1------0------1------|

verse x4---------------------------------------------------------------------|
---------------------------------------------------------------------|-5-5-5-5-5-5-5-5-------------------2-2-2-2-2-2-2-2-------------------|
-5-5-5-5-5-5-5-5--3-3-3-3-3-3-3-3--2-2-2-2-2-2-2-2--3-3-3-3-3-3-3-3--|
-3-3-3-3-3-3-3-3--3-3-3-3-3-3-3-3--0-0-0-0-0-0-0-0--3-3-3-3-3-3-3-3--|------------------1-1-1-1-1-1-1-1-------------------1-1-1-1-1-1-1-1--|
pm|...............................................................|interlude x2
---------------------------------------------------------------------|---------------------------------------------------------------------|
-----------------2------2--------------------------------------------|
---5-3----5-3------3------3------------------2------2----------------|...
tracking img