Cama de rosas

Solo disponible en BuenasTareas
  • Páginas : 6 (1338 palabras )
  • Descarga(s) : 0
  • Publicado : 13 de junio de 2011
Leer documento completo
Vista previa del texto
Normal tuning: (EADGBe)
Key:
b – Bend note(12b13) rb – release bend
p – Pull off h – Hammer on
/\ - slide up/down ~ - Vibrato
PM – Palm mute [x]- Artificial harmonic
Rake – Drag pick over notes while slightly palm muting with finger

Guitar 1(Acoustic): Piano part or chords
Guitar 2(Distorted): Intro, fills, solo and chorus

Background piano part:e|------------------------------------------------------------------------|
B|--8--------8--------8--------8--------8--------8--------8--------8------|
G|----10-------10-------10-------10-------10-------10-------10-------10---|
D|-------12-------12-------12-------12-------10-------10-------10-------10|
A|------------------------------------------------------------------------|E|------------------------------------------------------------------------|

Intro: (Distortion)
Rake rake
e|-12b13rb12--10~~------------|--10-12-12b13rb-12~~-10~~---------------|
B|-10--------------10-13-10~~-|--10---------------------13b15rb---13~~-|
G|-10-------------------------|--10-----------------------------14-----|D|----------------------------|----------------------------------------|
A|----------------------------|----------------------------------------|
E|----------------------------|----------------------------------------|
Rake rake
e|10-12-12b13-12~~-10~~-----------------|10-12-12b13rb-12~~10~~-----------|
B|10------------------13b15rb-10-13-10~~|10------------------13b15rb--13~~|G|10------------------------------------|10-------------------------14----|
D|--------------------------------------|---------------------------------|
A|--------------------------------------|---------------------------------|
E|--------------------------------------|---------------------------------|

Verse 1:
--------
Bb F
Sitting here wasted and wounded with this old piano.
BbF
Trying hard to capture the moment, this morning I don't know.
Am Bb F
'cause a bottle of vodka is still lodged in my head and some blonde
Bb (Fill 1)
gave me nightmares, I think that she's still in my bed.
e|-------------|
B|-3h4-3-------|G|-------3-----|
D|---------3~~-|
A|-------------|
E|-------------|
Bb C F
As I dream about movies they won't make of me when I'm dead.

Verse 2:
--------
Bb F (Fill 2)
With an iron-clad fist I wake up to french-kiss the morning.
e|------------------------|
B|------------------------|G|-10h12--10--------------|
D|-----------10h12-10/12~~|
A|------------------------|
E|------------------------|
Bb F (Fill 3)
While a marching band keeps it's own beat in my head while we're talking
rake
e|15b17rb-13h15------|
B|12------------13~~-|
G|12-----------------|
D|-------------------|
A|-------------------|E|-------------------|
Am Bb F
about all of the things I longed to believe, about love, the truth,
Bb (Fill 1)
what you mean to me and the truth is...
Bb C F (Fill 4)
Baby you're all that I need.
e|-----------|
B|-----------|
G|-----------|
D|---------5-|
A|---------3-|
E|--1-3-1--0-|Chorus:
-------
Dm C Bb F (Fill 5)
I wanna lay you down in a bed of roses
E|----------------------------|
B|----------------------------|
G|----------------------------|
D|----------------------------|
A|----------------------------|
E|-1-1--3b5rb3b5rb3b5rb3—-1~~-|
PM---|
Dm C Bb F (Fill 6)
for Tonight I'll sleep on a bed of...
tracking img