Cancion mala

Solo disponible en BuenasTareas
  • Páginas : 4 (764 palabras )
  • Descarga(s) : 29
  • Publicado : 6 de junio de 2010
Leer documento completo
Vista previa del texto
Intro:
C G Am C
e-------0-3--3----------0-------0-----------------
B-1------------3---3/5----1---3---0--1------------G---0------------0----------2------------0-0h2p0--
D-----2--------------------------------2----------
A-3---------------------0------------3------------
E------------3------------------------------------
C GC
e----------3-3/5-3----------------------
B-1-----3/5--------3-----------3/5---1--
G---0------------------0-0h2p0-------0--
D-----2--------------2------------------A-3----------------------------------3--
E------------------3--------------------

(los riffs se tokan kuando va a empezar a tokar el arpegio)

Riff 1 Riff 2 Riff 3

e----------- e-----0-e-0—-0h1p0---
B----------- B—-3-3-- B----------1-
G-----0-0h2- G-0----- G------------
D-0-2------- D------- D------------
A----------- A------- A------------
E----------- E-------E------------

Riff 4 Riff 5 Riff 6 Riff 7 Riff 8 Riff9 Riff 10

e-5h3-----0--- e----|---7-8---7—-5|----0-|----3|—-3---8|-13-12-10-12-
B--------3----B-0h2|-------------|-7----|-1---|-------|-------------
G------------ G----|-------------|------|-----|-------|-------------
D------------- D----|-------------|------|-----|-------|-------------
A-------------A----|-------------|------|-----|-------|-------------
E------------- E----|-------------|------|-----|-------|-------------

Riff 11 Riff 12 Riff 13 Riff 14

e-0-0h1-e-13-12--- e------------------ e-------------10--
B------- B------13- B--5-7-7/8-7h5-7--- B-8-8h6-6--------8
G------- G--------- G------------------ G-----------------
D-------D--------- D------------------ D-----------------
A------- A--------- A------------------ A-----------------
E------- E--------- E------------------ E-----------------

C G...
tracking img