Cancion

Solo disponible en BuenasTareas
  • Páginas : 17 (4134 palabras )
  • Descarga(s) : 0
  • Publicado : 17 de noviembre de 2010
Leer documento completo
Vista previa del texto
Tu me pides que te olvide

INTRO C / Dm / C / Dm / C

Dm
Tu me pides que te olvide
C
pero tengo un corazon
Dm
que por ti latiendo sigue
C
esperando por tu amor

Dm
Yo naci para quererte
C
esa es mi gran ilusion
Dm
no podre dejar de verte
C A7
telo juro por mi amor

Dm G7
Un triste sueño, eso es
CA7
mi vida sin ti.
Dm G7
Veras que hermoso seran nuestros dias,
C A7
si vuelves a mi
Dm G7
Nadie en el mundo como yo
C A7
te podra querer
Dm G7
Si aun recuerdas puedes volver mañana
C
que siempre te amaré.

Dm
Tu me pidesque te olvide
C
pero tengo un corazon
Dm
que por ti latiendo sigue
C
esperando por tu amor

Dm G7
Un triste sueño, eso es
C A7
mi vida sin ti.
Dm G7
Veras que hermoso seran nuestros dias,
C A7
si vuelves a mi
Dm G7
Nadie en el mundo como yo
CA7
te podra querer
Dm G7
Si aun recuerdas puedes volver mañana
C
que siempre te amaré.

Dm
Tu me pides que te olvide
C
pero tengo un corazon
Dm
que por ti latiendo sigue
C
esperando por tu amor

e)--0----------------------------0--------------------------B)--1-----3-----1-------1---3----1-----3-----1-------1---3--
G)-----0-----0-----0------0---------0-----0-----0------0----
D)----------------------------------------------------------
A)----------------------------------------------------------
E)----------------------------------------------------------

e)--1-------------------------1----------------------5------
B)--3-----5-----3-----3----5--3-----5-----3------3----------G)-----2-----2-----2----2--------2-----2-----2-----2--------
D)----------------------------------------------------------
A)----------------------------------------------------------
E)----------------------------------------------------------

e)--0----------------------------0--------------------------
B)--1-----3-----1-------1---3----1-----3-----1-------1---3--G)-----0-----0-----0------0---------0-----0-----0------0----
D)----------------------------------------------------------
A)----------------------------------------------------------
E)----------------------------------------------------------

Am
tu me pides que te olvid......
e)--1-------------------------1----------------------5------B)--3-----5-----3-----3----5--3-----5-----3------3----------
G)-----2-----2-----2----2--------2-----2-----2-----2--------
D)----------------------------------------------------------
A)----------------------------------------------------------
E)----------------------------------------------------------

G
pero tengo un coraz......
e)--0----------------------------0--------------------------B)--1-----3-----1-------1---3----1-----3-----1-------1---3--
G)-----0-----0-----0------0---------0-----0-----0------0----
D)----------------------------------------------------------
A)----------------------------------------------------------
E)----------------------------------------------------------

Am
que por ti latiendo siguee)--1-------------------------1----------------------1------
B)--3-----5-----3-----3----5--3-----5-----3-------5------5--
G)-----2-----2-----2----2--------2-----2-----2--------------
D)----------------------------------------------------------
A)----------------------------------------------------------
E)----------------------------------------------------------

G
esperando por tu amor...
tracking img