Canciones

Solo disponible en BuenasTareas
  • Páginas : 5 (1238 palabras )
  • Descarga(s) : 0
  • Publicado : 1 de mayo de 2011
Leer documento completo
Vista previa del texto
Santo Remedio
Ruego
INTRO:
(los punteos se repiten varias veces)

e ----------7-7-7-7----------10-10-10-10--8-8-8--7-7-7---------
B --8-8-8-8----------8-8-8-8----------------------------8-8-8-8
G -------------------------------------------------------------

e-----------10-10-10-10--
B --8-8-8-8---------------
G ------------------------

(ESTA PARTE ES CUANDO ENTRA LA BATERIA)
e --7-7-7-7-7-7-7-7-----------10-10-10-10-10--8-8-8-8--7-7-7-7--
B ------------------8-8-8-8-8-----------------------------------
G--------------------------------------------------------------

e ----------7-7-7-7--10-10-10-10--8-8-8--7-7-7--
B --8-8-8-8-------------------------------------
G ----------------------------------------------

e --7-7-7-7-7-7-7-7--8-8-8-8-8-8----------
B ----------------------------------------G ----------------------------------------

e --7-7-7-7----------7-7-7-7--10-10-10-10----
B -----------8-8-8-8-------------------------
G -------------------------------------------

Gsus2 Cmaj7
Ruego por aquel que llora sin consueloGadd9 Cmaj7
Por quien ha experimentado mas el infierno que el cielo
Am Cadd9 Gadd9 Cadd9
Por quien siempre ha tenido de mejores amigos al temor y la depresion
Am Cadd9 D
Y que vivebuscando respuesta a tal situación

(SIGUE MISMA SECUENCIA DE ACORDES)

Ruego por aquel que vino a este mundo sin padres
Por el recien nacido que abandono en la calle una madre
Por aquel que es golpeado desde que esta en el vientre
por un padre sin corazon
y que notiene derecho al voto pues carece de voz

Ruego por aquel que tiene como hogar el vicio
Y que no puede dejarlo pues se ha convertido en su oficio
Por quien deja familia y amigos por un momento de placer
Que como herido de bala va hiriendo por doquierRuego por aquel matrimonio que se ha deshecho
Y por el hijo que grita angustiado a los dos tengo derecho
Cuando una sola carne es dividida tiene que sangrar
Esa sangre que corre es testigo de una gran soledad

CORO_:A Bm
Ellos necesitan de ti JESUS ellos necesitan de ti
D E
Porque aun viviendo no saben lo que es vivir
A Bm
Ellos necesitan de ti JESUS ellos necesitan de ti
D E DPorque aun viviendo no saben lo que es vivir

(MISMA SECUENCIA DEL PRINCIPIO)

Por la mujer y la niña que venden su cuerpo en la noche
Y que después de dia tiran su dinero en derroches
Sueño a esa mujer y esa niña teniendo familia con quien reir
Y a las diez...
tracking img