Cantos de jubilo jaime murell

Solo disponible en BuenasTareas
  • Páginas : 2 (397 palabras )
  • Descarga(s) : 0
  • Publicado : 27 de febrero de 2012
Leer documento completo
Vista previa del texto
INTRO: ÓRGANO 4 TIEMPO:

G:----99---------7----- es todo eslap
D:------------5--------
A:-7------7------------E:--------------------


G:-----9-9--7-9------
D:--------------------
A:-7------------------E:--------------------

G:----99---------7-----
D:------------5--------
A:-7------7------------
E:---------------------G:---------9 9 8 9-----
D:---------------------
A:--7------------------
E:---------------------COMIENZO DE CANCIÓN:

GOLPE DE ESPADA:
G:-------9-9---------------7-----
D:-------------------5--------A:--7----------7--------------
E:---------------------------



G:--------9-9-9-7--------D:-----------------------
A:---7------------------
E:----------------------


G:-5-5------5-7----------D:------7----------------
A:----------------5------
E:----------------------G:---9-9------------9------------
D:---------------------------
A:-7------9-----7---------------
E:---------------------------CORO:
Y CADA GOLPE…
G:---------------------------------
D:---------------------------------
A:--------2-5-3-2---5--5------------...
tracking img