Carpio trabajos

Solo disponible en BuenasTareas
  • Páginas : 2 (430 palabras )
  • Descarga(s) : 0
  • Publicado : 7 de mayo de 2010
Leer documento completo
Vista previa del texto
1e|----------------------------------------------------------------------->
2B|----------------------------------------------------------------------->3G|------------------------------------------------------22-22-----------2>
4D|----------------------------------------0-2-22-0-2--22-----22-22-22 0-->
5A|--0-00-2-3-33-0-------------0-00-2-3-33-------------------------------->6E|-0--------------3-33-0-3---0------------------------------------------->

>---------------------|
>---------------------|
CONTINUACION >---------------------|
DEL INTRO-->>---------------------|
>-------3-33--3-0---0-|
>-0-1-11---------3-0--|

TERMINANDO EL INTRO EMPIESA ESTE RIFF1 QUE SE TOCA VARIAS VECES.
(AQUÍ EMPIESA EL ACOMPAÑAMIENTODE LA BATERIA)
RIFF1:
4D|------------------------|
5A|-----777-----777-----777|
6E|-555-----555-----555----|

1e|----------------------------------------------------------------------->2B|----------------------------------------------------------------------->
3G|------------------------------------------------------22-22-----------2>4D|----------------------------------------0-2-22-0-2--22-----22-22-22 0-->
5A|--0-00-2-3-33-0-------------0-00-2-3-33-------------------------------->
6E|-0--------------3-33-0-3---0------------------------------------------->>---------------------|
>---------------------|
CONTINUACION >---------------------|
DEL INTRO--> >---------------------|
>-------3-33--3-0---0-|>-0-1-11---------3-0--|

EN ESTA PARTE ENTRAN LOS RASGUEOS DE GUITARRA

1e|-0-0--0--0-0--0-0-|
2B|-1-1--1--1-1--1-1-| LES RECOMIENDO QUE LOS RASGUEOS LOS DEN CERCA
3G|-2-2--0--2-2--0-2-| DEL PUENTE, PARAQUE SE OIGAN MEJOR.
4D|-2-2--2--2-2--2-2-|
5A|-x-x--3--x-x--3-x-|
6E|-x-x--0--x-x--0-x-|

RIFF2:
4D|---------------|
5A|--------3--3-0-| ESTE RIFF2 VA DESPUES DE LOS RASGUEOS, ESCUCHA LA...
tracking img