Carry on my wayward son

Solo disponible en BuenasTareas
  • Páginas : 2 (459 palabras )
  • Descarga(s) : 0
  • Publicado : 15 de noviembre de 2011
Leer documento completo
Vista previa del texto
----------------------------------------------------------------------------
Carry On My Wayward Son - Kansas
----------------------------------------------------------------------------Tabbed by:therockdawg1138
Email:F U

Tuning:Standard

Main Riff The chords for the main riff are: Am C Am D (FYI)
e|--------------------------------------------------------------------------|B|--------------------------------------------------------------------------|
G|--------------------------------------------------------------------------|D|------------------5-------------------------------------------------------|
A|------3------5-5/7--7p5-3-5-3---------------------------------------------|
E|-5-3-5--5-3-5--------------3-2--------------------------------------------|E E
e|-----3-3---------------5-3------------------------------------------------|
B|-----3-3---------------5-3------------------------------------------------|G|-1-1---------------1-1----------------------------------------------------|
D|-2-2---------5-----2-2----------------------------------------------------|A|-2-2--------5-7p5--2-2----------------------------------------------------|
E|-0-0-----5h7-------0-0----------------------------------------------------|

Then after the solo before the verse goes something like this I don know the solo
TheChords are Am Am Am G Am G F
e|-0-0-0-3-0-3-5------------------------------------------------------------|
B|--------------------------------------------------------------------------|G|--------------------------This is a complete waste of space---------------|
D|--------------------------------------------------------------------------|A|--------------------------------------------------------------------------|
E|--------------------------------------------------------------------------|

Here's the Chords for the verses
Am G F G
As I rose above the noise...
tracking img