Chevy2000

Solo disponible en BuenasTareas
  • Páginas : 5 (1056 palabras )
  • Descarga(s) : 0
  • Publicado : 2 de noviembre de 2011
Leer documento completo
Vista previa del texto
PROXIMO VIERNES

C G
Hola Bebe, ¿Cómo has estado?
F
Tal vez no sepas, quien habla
Dm G
O tal vez lo hayas olvidado.

F C
Bebe, yo no soy tan maloF C
Bebe, sabes que te amo
Dm
Salgamos el viernes
F G
Y hablemos de frente.

C
Igual y le robo un beso a tu boca
C7 F
Y dejas de creer que soy poca cosaDm F
Igual y te explico, igual y no entiendes
G
Que te necesito.

C
Igual y te abrazo, con mucha ternura
C7 F
Y hago desaparecer, toditas tus dudasDm
Igual y he fallado, pero dime
F G
¿Quién no se ha equivocado.

C
Igual y de plano, ya no quieres verme
C7 F
Pero déjame besar de nuevo tu frente
Dm FG
Igual y te pido volverte a miraaaaaaar
C
El próximo viernes.

C F
E |----------------------------------------------0-----|
B |------0-3--1/3-1----1/3-1----1/3-1-----1-1-3--------|
G|-0-0--------------0--------0---------0-----------2--|
D |----------------------------------------------------|
A |---3-------3--------3--------3-----------3-------3--|
E |----------------------------------------------------|



DmG
E |----------------------0/1-0-----------0/1-0-------------------3-|
B |----1/3-1----1/3-1----------3-1/3-----------3-1/3-------1-----3-|
G |-2---------2--------2---------------2--------------0/2----2-----|
D |----------------------------------------------------------------|
A|----3--------3--------0-------0-------0-------0-----------------|
E |--------------------------------------------------------------3-|


C
Igual y le robo un beso...



De alli se repite…
Espero que les haya gustadoYa tenia tiempo sin dejar una rola

Va dedicada para mi angelita :)


¡¡ te amo yadi !!!


ke pex a todos!!!! aki les dejo una de las nuevas rolas de camila
ke la vdd para mi se oye identika jeje pero se la dejo a su
kriterio y califiken honestamente porfa:P

|

()la nota casi no tiene sonido.

INTRO:

Bm A G Bm A G
e------------------------------------------------------
B---4-5----5--4-------2-----(0)---4-5----5--4-----2----...
tracking img