Cimentacion

Solo disponible en BuenasTareas
  • Páginas : 9 (2077 palabras )
  • Descarga(s) : 0
  • Publicado : 15 de febrero de 2012
Leer documento completo
Vista previa del texto
IRIS
INTRO (x2):
D|---0---0---0---0---0---0---0---0---0---0------|
D|---0---0---0---0---0---0---0---0---0---0------|
D|---0---0---0---0---0---0---0---0---0---0------|
D|--12--12--12--12--12--11--11--11--11--11/12---|
A|----------------------------------------------|D|----------------------------------------------|

D|---0---0---0---0---0---0---0---0---0---0---0---0---0---0---|
D|---0---0---4---4---4---4---4---2---0---0---0---0---0---0---|
D|---0---0---0---0---0---0---0---0---0---0---0---0---0---0---|
D|---0---0---5---5---5---5---5---4---0---0---0---0---0---0---|A|-----------------------------------------------------------|
D|-----------------------------------------------------------|
VERSE:
D Em G
And I'd give up forever to touch you
Bm A G
'Cause I know that you feel me somehow
D Em G
You're the closest to heaven that I'll ever be
Bm A G
And I don't want to go home right now

VERSE:D Em G
And all I can taste is this moment
Bm A G
And all I can breathe is your life
D Em G
And sooner or later it's over
Bm A G
I just don't want to miss you tonight

CHORUS:
Bm A G
And I don't want the world to see me
Bm A G
'Cause I don't think that they'd understand
Bm A G
Wheneverything's made to be broken
Bm A G
-------------------------------------------------
I just want you to know who I am
A DIOS LE PIDO
-5--5-5--8-8-8--5-5-5--5-5---------------------------------|
2-5--5-5--5-5-5--5-5-5--5-5-------3-3------3-3-----3-3------|
3-------------------------------4--------4-------4----------|
4----------------------------6---------6-------6-------6-7--|5-----------------------------------------------------------|
6-----------------------------------------------------------|

1-5--5-5--8-8-8--5-5-5---5-5-------------------------------|
2-5--5-5--5-5-5--5-5-5---5-5-------3-3-----3-3-----3-3-----|
3--------------------------------4-------4-------4---------|
4-----------------------------6--------6-------6-------6-7-|5----------------------------------------------------------|
6----------------------------------------------------------|

1-----------------------------------------------------------|
2-------5-----5---------5----5--------------3-3-----3-3-----|
3-----5-----5-----5---5---5-----7--4------4-------4---------|
4--7---------------7-----------------6--6-------6-------6-7-|5-----------------------------------------------------------|
6-----------------------------------------------------------|

1------------5-----5---5-4----------7-10-8-7----8-7----------|
2------5---5---5-----5-----5------9----------10------10-9-10-|
3----5---5-------5--------------9----------------------------|
4--7---------------------------------------------------------|
5------------------------------------------------------------|6------------------------------------------------------------|
Am
Que mis ojos se despierten
E
con la luz de tu mirada
yo a Dios le pido

Am Dm
que mi madre no se muera
E
y que mi padre me recuerde
a Dios le pido

Am Dm
Que te quedes a mi lado
E
y que más nunca te me vayas mi vida
a Dios le pidoAm Dm
que mi alma no descanse
E
cuando de amarte se trate mi cielo
a Dios le pido

Am
Por los días que me quedan
E
y las noches que aun no llegan
yo a Dios le pido

Am Dm
por los hijos de mis hijos
E
y los hijos de tus hijos
-------------------------------------------------
a Dios le pido
VOVLERTE A...
tracking img