Coco

Solo disponible en BuenasTareas
  • Páginas : 2 (313 palabras )
  • Descarga(s) : 0
  • Publicado : 16 de enero de 2011
Leer documento completo
Vista previa del texto
PARTE PIANO EN GUITARRA:
-5------4------2------0----------5------4------2------------|
-----2------2------2------2----------2------2------2--5---2-|---4------4------4------4----------4------4------4------4---|
-0-------------------------------4--------------------------|
------------------------------------------------------------|------------------------------------------------------------|

-5------4------2------0----------------2------2-2--|
-----2------2------2------2---------2------2----2--|
---4------4------4------4--------2--------------2--|-0---------------------------------------6------4--|
------------------------------------------------4--|
---------------------------------2--------------2--|

GUITARRA ELECTRICA:----------7h9v---12h14------------------------------|
------9-10------------12h14-10/12---10-9h10p9-------|
-9h11-----------------------------------------9h11v-|
----------------------------------------------------|----------------------------------------------------|
----------------------------------------------------|

D F#m D F#m
Bésame ... a destiempo sin quedar y en silencio
DF#m D F#m
bésame ... frena el tiempo has crecer lo que siento

Bm C#m F#m E
Bésame como si el mundo se acabara despues
Bm C#mF#m E
bésame y beso a beso por el cielo al revéz
Bm C#m F#m E B
bésame sin razon porque quiere el corazón
D
bésame ...

D F#m X2

DF#m
Sientemé en el viento
D
mientras yo
F#m
muero lento

D F#m
bésame sin motivo
D F#m
y estare siempre contigo

Bm C#m F#mE
bésame como si el mundo se acabara después
Bm C#m F#m E
bésame y beso a beso pon el cielo al revés
Bm C#m F#m E B
bésame sin...
tracking img