Coleccionista de canciones

Solo disponible en BuenasTareas
  • Páginas : 3 (590 palabras )
  • Descarga(s) : 0
  • Publicado : 19 de febrero de 2011
Leer documento completo
Vista previa del texto
C#
e----------------------------------------------|
B--2/4--4/6--1--2/4------2/4--4/6--1--2/4------|G--3----------------1/3--3----------------1/3--|
D--4---------------------4---------------------|
A----------------------------------------------|E----------------------------------------------|

C# A#m
e-------------------------------------------------------|B-------2-1------------------------2h1------------------|
G-------------------------------------------------------|
D---4-------------------------3-------------------------|A-3-------------------------1---------------------------|
E-------------------------------------------------------|
Tu...coleccionista de cancionesF# G#
e----------------------------------------------3h4------|
B-------------2------------------------------4----------|G------------4------------------------------6-----------|
D-----------3------------------------------5------------|A----------4------------------------------6-------------|
E---------2------------------------------4--------------|
dame razones para vivir
C# A#mF#
e---------------------------------------------------------|
B----2-1----------------------2---------------------------|G----------------------------3---------------------3------|
D--4------------------------3---------------------4-------|
A-3------------------------1---------------------4--------|...
tracking img