Contabilidad 1

Solo disponible en BuenasTareas
  • Páginas : 10 (2451 palabras )
  • Descarga(s) : 0
  • Publicado : 27 de septiembre de 2010
Leer documento completo
Vista previa del texto
DESARROLLO

LIBRO DIARIO

------------------------------------------------
CAJA 3000
MAQUINARIAS 3000
MUEBLES Y ÚTILES 2000
A CAPITAL 8000
--------------------03-11----------------------
BCO SUQUIA CNTA CTE 500
A CAJA 500
--------------------05-11----------------------
ALQUILERES PAGADOS 250
A BCO SUQUIA CNTA CTE 250--------------------12-11----------------------
CAJA 700
A SERVICIOS PRESTADOS 700
--------------- ----15-11-----------------------
DEUDORES POR VENTA 500
A SERVICIOS PRESTADOS 500
--------------------20-11-----------------------
PUBLICIDAD 80
A CAJA 80
--------------------25-11-----------------------
CAJA 525
A INTERESES GANADOS 25
A DEUDORES POR VENTA 500-------------------30-11------------------------
SUELDOS Y JORNALES 600
A CAJA 600
---------------------------------------------------

MAYORIZACIÓN

CAJA CAPITAL CTA CTE BCO SUQUIA ALQUILER

3000 800 500 250
500 250
700
80
525
600
------------------------------- ---------------------------------------------------------------- ----------------------------------
4225 1180 0 800 500 250 250 0
3045 800 250 250

SERV PRESTADOS DEUDORES POR VTA PUBLICIDAD INTERESES GANADOS

700 500 80 25
500 500

------------------------------- --------------------------------------------------------------------- -----------------------------------
0 1200 500 500 80 0 0 25
1200 0 0 80 25

SUELDOS Y JORNALES MAQUINARIAS MUEBLES Y UTILES

600 3000 2000

--------------------------------- -------------------------------- ------------------------------------
600 0 3000 0 2000 0
6003000 2000



BALANCE DE SUMAS Y SALDOS

SUMAS SALDOS
CUENTA DEBITO CREDITO DEUDOR ACREEDOR
Caja 4225 1180 3045
Maquinarias 3000 3000
Muebles y útiles 2000 2000
Capital 8000 8000
Cta. CTE Bco. Suquía 500 250250
Alquileres pagados 250 250
Servicios prestados 1200 1200
Gasto publicidad 80 80
Intereses ganados 25 25
Sueldos y jornales 600 600
10655 10655 9225 9225

ACTIVIDAD 2:
Complete el siguiente cuadro, indicando para cada operación enunciada el tipo de variación que se genera marcando con una “X” en el casillero correspondiente.

OPERACIONES VARIACIÓN
PATRIMONIALPERMUTATIVA VARIACION
PATRIMONIAL
MODIFICATIVA
Pago del alquiler del mes en curso, en efectivo. x
Venta de mercadería, a cobrar a 30 días. x
Compra de un rodado, firmando un documento a pagar a 30 días. x
Pago de una deuda bancaria en efectivo. x
Pago a un proveedor, mediante un aporte de Capital. x

ACTIVIDAD 3:
Identificar en cada caso cuál es el documento comercial que respalda laoperación indicada, marcando además con una “X” en el casillero correspondiente según sea o no un documento registrable para la contabilidad.


OPERACION
DOCUMENTO
REG. NO REG.

1 Un proveedor nos imputa en nuestra cuenta, el costo del flete por la mercadería enviada. NOTA DE DÉBITO X

2 Pago a una agencia de publicidad, por un trabajo de imagen institucional realizado. FACTURA X

3 Sele efectúa un pedido a un proveedor, para que nos envíe 100 unidades de materias primas. ORDEN DE COMPRA X

4 Al finalizar el mes, le informamos a un cliente sobre el estado de su cuenta. RESUMEN DE CUENTA X

5 Se compra mercadería, abonando a través de la cuenta corriente que posee la empresa en el Banco de Córdoba CHEQUE X

ACTIVIDAD 4:
Completar el siguiente cuadro, analizando las...
tracking img