Contabilidad

Solo disponible en BuenasTareas
  • Páginas : 15 (3673 palabras )
  • Descarga(s) : 0
  • Publicado : 16 de enero de 2011
Leer documento completo
Vista previa del texto
Intro:
C G Am G

e|---3---3---3---3---5---5---3---3---|
b|---5---5---3---3---5---5---3---3---|
g|---5---5---4---4---5---5---4---4---|
d|---5---5---5---5---7---7---5---5---|
a|xxx-xxx-xxx-xxx-xxx-xxx-xxx-xxx-xxx|
e|xxx-xxx-xxx-xxx-xxx-xxx-xxx-xxx-xxx|

C
Te quiero si te quiero
G Am G
voy andando como fiera tras tus pies amor
CG
Te veo y te deseo pero tu
Am G
tienes tu dueño y no te puedes safar

Am G C
Los dias se pasan sin ti
Am G C
Las noches se alargan sin ti
Dm G
Sin tu amor sin tus besos

C Am Em G
Ay si tuvieras libertad a tu lado yo estaria amore------------------------------------
b------------------------------------
g----9----7----9-------9---7---9-----
d-10---10---10---10--7---7---7---7---
a------------------------------------
e------------------------------------

e----------------------------------------
b----------------------------------------
g----9---7---5--------12----10----9------
d--9---9---9---9---12----12----12---12---a----------------------------------------
e----------------------------------------

C Am Em G
Hey dame dame una señal cuando seas libre mi amor

e------------------------------------
b------------------------------------
g----9----7----9-------9---7---9-----
d-10---10---10---10--7---7---7---7---
a------------------------------------e------------------------------------

e----------------------------------------
b----------------------------------------
g----9---7---5--------12----10----9------
d--9---9---9---9---12----12----12---12---
a----------------------------------------
e----------------------------------------

F C G Am
Hay yo no puedo soportar no me quiero derrumbare-----------------0---------3-----------0------
b------6--------1---1-----3---3-------1--------
g----5---5----0---------0-----------2----------
d--3------------------------------2------------
a----------------------------------------------
e----------------------------------------------

F C G Am
Mandame un mensaje una señal manda una señal de amore-----------------0---------3-----------0------
b------6--------1---1-----3---3-------1--------
g----5---5----0---------0-----------2----------
d--3------------------------------2------------
a----------------------------------------------
e----------------------------------------------

Em Am
manda una señal amor

e--------0--------0-----
b------0--------1-------g----0--------2---------
d--2--------2-----------
a-----------------------
e-----------------------

C G Am G

e--------5-/-----------/------------/
B----------/--------8--/------------/
G--5-------/-----5-----/---------5--/
D-----7----/--7--------/------5-----/
A----------/-----------/---7--------/
E----------/-----------/------------/

C G Ame-------/--10h12--12--12--10--8----/--10--12--10-----------10--/
B--8--8-/--------------------------/--------------------------/
G-------/--------------------------/---------------12--9------/
D-------/--------------------------/--------------------------/
A-------/--------------------------/--------------------------/
E-------/--------------------------/--------------------------/G
e---8--------------------/
B------------------------/
G---------9h10--9--7--5--/
D------------------------/
A------------------------/
E------------------------/

C G Am G
Te veo acorralada de unos brazos que no te dejan mover
C G Am G
te deseo me deseas pero estas muy aprisionada...
tracking img