Contigo hata la muerte

Solo disponible en BuenasTareas
  • Páginas : 2 (371 palabras )
  • Descarga(s) : 4
  • Publicado : 22 de noviembre de 2009
Leer documento completo
Vista previa del texto
Intro:

F ---------------------------------------------------------
C --------------------------------------------------------- 2x
G ---------------------------------------------------------C----55---55----55-----55---7-------22------22---22---22---

Verso:4x
El día llego con soledad Y no sientes quien te toca…

F -------------------------------------------------
C-------------------------------------------------
G -----3-3-3---5--0-00-0--0-0----------------------
C-------------------------------2-2-2-2-2-2--2----

F ------------------
C ---------5--------
G-7-7--5-----3-3---
C-------------------

Coro:

Vida ven esto ya lo viví otra vez.....

F ---------------------------------------------
C ---------------------------------------------
G------------------------------3-3-3-3-3-3-3--
C-5-5-5-5-5-5----2-2-2-2-2-2-2-----------------

F --------------------------------------
C --------------------------------------
G--0--0-0-0-0-0-0-0--------------------
C--------------------2-2-2-2-2-2-2-2----

Intro de nuevo:

F ------------------------------------------------
C ------------------------------------------------
G------------------------------------------------
C--55----55----5-5---55-7----22------22---22--22--

Verso:
Ayer vi tu alma tan diferente….

F -------------------------------------------------
C------------------------------------------------- 2x
G -3-3-3-3-3-3-3-3-3---0-0-0-0-0-0-0---------------
C------------------------------------2-2-2-2-2-2-2-

Coro:3x
Vida ven esto ya lo viví otra vez.....
F---------------------------------------------
C ---------------------------------------------
G ------------------------------3-3-3-3-3-3-3--
C-5-5-5-5-5-5----2-2-2-2-2-2-2-----------------

F--------------------------------------
C --------------------------------------
G --0--0-0-0-0-0-0-0--------------------
C--------------------2-2-2-2-2-2-2-2----

Vida ven esto ya lo viví otra vez….
F...
tracking img