Curso de blues

Solo disponible en BuenasTareas
  • Páginas : 8 (1936 palabras )
  • Descarga(s) : 0
  • Publicado : 2 de marzo de 2012
Leer documento completo
Vista previa del texto
[pic]

2.- Escala Blues en A  
---------------------------------------------------------------------8-----5----
------------------------------------------------------7---6---5----------------
--------------------------------------------7----5------------------------------
---------------------------8----7----5--------------------------------------------------------8-----5----------------------------------------------------------
---8-----5---------------------------------------------------------------------- 


3.- Escala Blues en A (Afinación en G) 

------------------------------------------------------------------------------10-----7------
-------------------------------------------------------------9----8----7---------------------------------------------------------------10----7----5------------------------------------
--------------------------9----8----7-------------------------------------------------------
--------------10----8-----------------------------------------------------------------------
-------10------------------------------------------------------------------------------------ 
Es muy importante una correctaafinación en G de la guitarra ya que sino esta escala sonara realmente mal.
 4.- Escala Blues en A (Afinación en D) 

-----------------------------------------------------------------------7--------
------------------------------------------------7----6----5----3--------------
-------------------------------------7----5--------------------------------------------------------------------6-----------------------------------------------
----------------7----6----5---------------------------------------------------
-----7----5-------------------------------------------------------------------- 



ESCALAS BASICAS DE BLUES (PARTE 2)
5.- Patrón
-------------------------------------------------------------------------3----0------------------------------------------------------------------3----0-----------------
--------------------------------------------2----1----0----------------------------
---------------------------------2----0---------------------------------------------
-----------------4----3----1-------------------------------------------------------
------3----0------------------------------------------------------------------------
6.-Patrón
---------------------------------------------------------------------------5----3-----
-------------------------------------------------------------6---5---3---------------
--------------------------------------------5----2----1------------------------------
---------------------------------5----2-----------------------------------------------------------------5---4---3----------------------------------------------------------
-------5----3-------------------------------------------------------------------------
7.- Patrón
----------------------------------------------------------------------------8-----5----
-----------------------------------------------------------7----6----5-----------------------------------------------------------------7----5--------------------------------
--------------------------------8----7----5-------------------------------------------
-----------------8----5---4-----------------------------------------------------------
-------8----5--------------------------------------------------------------------------
8.- Patrón
-----------------------------------------------------------------------------11---10---8----------------------------------------------------------------10---7---6-----------------------
-------------------------------------------------10----7-------------------------------------
-----------------------------------9---8---7-------------------------------------------------
-----------------------10----8---------------------------------------------------------------...
tracking img