Danilo qlo :z

Solo disponible en BuenasTareas
  • Páginas : 3 (637 palabras )
  • Descarga(s) : 0
  • Publicado : 1 de diciembre de 2011
Leer documento completo
Vista previa del texto
Main guitar part :
So close,no matter how far......
Eb-------------3----0---|-2---2-2-2-3--0--0-0-----|
Bb---------0----------0-|-3---3-3-3-3--3--3-3-----|Gb-----0----------0-----|-2---2-2-2-2--0--0-0-----| repeat 2X
Db----------------------|-0---0-0-0-0--2--2-2-----|
Ab----------------------|--------------3--3-3-----|
Eb-0--------------------|---------------------3-2-|Forever trusting who we are............and nothing else
matters
Eb-------------3----0---|-2---2-2-2-3--0--0-0-----------3--2------2----Bb---------0----------0-|-3---3-3-3-3--3--3-3-----------3--0--------0--
Gb-----0----------0-----|-2---2-2-2-2--0--0-0---------0----2-----------
Db----------------------|-0---0-0-0-0--2--2-2--------------1----1------Ab----------------------|--------------3--3-3--------------2--2--------
Eb-0--------------------|---------------------0-2-3--------------------

Chorus guitar part
Never cared for what they do........Eb-0-----0-----|-2-----2-2-2-3---2--0--2-|
Bb-1-----2-----|-3-----3-3-3-3---3--3--3-|
Gb-0-----2-----|-2-----2-2-2-2---2--2--2-|
Db-2-----2-----|-0-----0-0-0-0---0--0--0-|Ab-3-----0-----|-------------------------------|
Eb--------------|--------------------------------|

Eb-0-----0-----|-2-----2-2-2-3---2--0--2-|
Bb-1-----2-----|-3-----3-3-3-3---3--3--3-|Gb-0-----2-----|-2-----2-2-2-2---2--2--2-|
Db-2-----2-----|-0-----0-0-0-0---0--0--0-|
Ab-3-----0-----|-------------------------------|
Eb--------------|-------------------------------|Eb-0-----0-----|-2-----2-2-2-0-----------|
Bb-1-----2-----|-3-----3-3-3-0-----------|
Gb-0-----2-----|-2-----2-2-2-0-----------|
Db-2-----2-----|-0-----0-0-0-2-----------|
Ab-3-----0-----|----------------2-----------|Eb-------------|------------------0-----------|

Interlude
|-12------14---|-15-------17---|-8------8------|-------8--------|
|---12------12-|---12-------12-|---5------5----|----5-----5-----|...
tracking img