Hola como estan, creo que esta version es parecida pero
tiene algunos arreglos que la hacen sonar mejor que las que
estan aquí, espero les guste, es una de las mejores de esta banda

el arpegio de casi toda la cancion va asi:

Em A D G
E|---------7-------|---------5-------|---------5-------|---------3---2---|
B|-----8-------8---|-----5-------5---|-----7-------7---|-----3---------3-|
G|---9---9---9---9-|---6---6---6---5-|---7---7---7---7-|---4---4---4-----|
D|-----------------|-----------------|-----------------|-----------------|A|-----------------|-----------------|-5---------------|-----------------|
E|-0---------------|-5---------------|-----------------|-3---------------|

Y el arpegio en el coro va asi:

D A
E|---------2-------|---------0-------|
B|-----3-------3---|-----2-----------|
G|---2---2---2---2-|---2---2---------|
D|-0---------------|-----------------|
A|-----------------|-0---------------|
E|-----------------|-----------------|

Intro:
Em A D G
Em A D G
Uh uh uh uh uh uh uh

Letra:

Em A D G
Ella Despidio a su amor, el partio en un barco en el muelle de San Blas
Em A DG
El juro y que volveria y empapada en llanto ella juro que esperaria
Em A D G
Miles de lunas pasaron y siempre ella estaba en el muelle esperando
Em A D G
Muchas tardes se anidaron se anidaron en su pelo y en sus labios.

Em A D G
Uh uh uh uh uh uh uh (2 veces)

Em A D G
Llevaba el mismo vestido y por si el volviera no se fuera a equivocar
Em A D G
Los cangrejos le mordian [continua]

Leer Ensayo Completo

Cite este ensayo

APA

(2011, 01). Dayana. BuenasTareas.com. Recuperado 01, 2011, de http://www.buenastareas.com/ensayos/Dayana/1464490.html

MLA

"Dayana" BuenasTareas.com. 01 2011. 2011. 01 2011 <http://www.buenastareas.com/ensayos/Dayana/1464490.html>.

MLA 7

"Dayana." BuenasTareas.com. BuenasTareas.com, 01 2011. Web. 01 2011. <http://www.buenastareas.com/ensayos/Dayana/1464490.html>.

CHICAGO

"Dayana." BuenasTareas.com. 01, 2011. consultado el 01, 2011. http://www.buenastareas.com/ensayos/Dayana/1464490.html.