De todo un poco

Solo disponible en BuenasTareas
  • Páginas : 2 (458 palabras )
  • Descarga(s) : 0
  • Publicado : 2 de septiembre de 2012
Leer documento completo
Vista previa del texto
|------------|------------|0-----2-0---|------------|
|------------|1-------3---|------------|3-------0---|
|--------2---|------------|------------|------------||------------|------------|------------|------------|
|------------|0-------2---|3-----------|------------||------------|------------|------------|3-----------|


|------------|------------|------------|------------|
|--------0---|1-----------|------------|0-----------||0-----2-----|--------2---|2-----1-2---|--------1---|
|------------|------------|3-----------|2-----------||2-----------|0-----------|------------|------------|
|------------|------------|------------|------------|


|------------|------------|0-----2-0---|------------||--------0---|1-------3---|------------|3-------0---|
|------------|------------|------------|------------||2-----------|------------|------------|------------|
|------------|0-------2---|3-----------|------------|
|0-----------|------------|------------|3-----------||------------|------------|------------|------------|
|--------0---|1-----0-----|------------|------------|
|0-----2-----|--------2---|1-------1---|2-----------||------------|------------|------3-----|------------|
|2-----------|0-----------|------------|0-----------||------------|------------|0-----------|------------|


|------------|3-----------|3-----2-0---|------------|
|------------|------------|------------|3-------0---|...
tracking img