De todo

Solo disponible en BuenasTareas
  • Páginas : 6 (1314 palabras )
  • Descarga(s) : 0
  • Publicado : 1 de diciembre de 2011
Leer documento completo
Vista previa del texto
que me tortura en las noches, no me deja soñar, amplifica mis temores
d#-----------------------2~------------------2~--------------------2~---|
A#-----------------------2~------------------4~--------------------2~---|
F#-----------------------2~------------------4~--------------------2~---|C#-----------------------4~------------------4~--------------------4~---|
G#-----------------------4~------------------2~--------------------4~---|
D#------------4----------2~----------------------------------------2~---|

simplocabal... aaal
d#----------5~-------7~-|
A#----------5~-------7~-|F#----------6~-------8~-|
C#----------7~-------9~-|
G#----------7~-------9~-|
D#----------5~-------7~-|


me encerre y acabe con mis sueños y la llave arroge para que los necesito
d#|0~------------------------4~------------------4~-------------------5~|A#|0~------------------------4~------------------5~-------------------5~|
F#|1~------------------------4~------------------6~-------------------6~|
C#|2~------------------------6~------------------6~-------------------7~|
G#|2~------------------------6~------------------4~-------------------7~|D#|0~------------------------4~----------------------------------------5~|

solo me causara angustia, me hace falta un plan, me hace falta astusia
d#--------------------2~---------------------2~---------------------2~---
A#--------------------2~---------------------4~---------------------2~---
F#--------------------2~---------------------4~---------------------2~---C#--------------------4~---------------------4~---------------------4~---
G#--------------------4~---------------------2~---------------------4~---
D#---------4----------2~--------------------------------------------2~---|

y paz mental... aaal
d#----------5~-------7~-|A#----------5~-------7~-|
F#----------6~-------8~-|
C#----------7~-------9~-|
G#----------7~-------9~-|
D#----------5~-------7~-|

entiendo el rechazo del mundo, tu repudio amor pues iwal si me conociera
d#|--000000000000000000000044444444444444444444444444444444444444

4444455555A#|--000000000000000000000044444444444444444455555555555555555555

5555555555
F#|--111111111111111111111144444444444444444466666666666666666666

6666666666
C#|--222222222222222222222266666666666666666666666666666666666666

6666677777
G#|--222222222222222222222266666666666666666644444444444444444444

4444477777D#|--0000000000000000000000444444444444444444-------------------------55555

tal vez voltearia mi cara talvez sentiria lastima dicen q el amor mancha
d#555555555554444444444222222222222222222222222222222222222222

222222222222
A#555555555554444444444222222222222222222222444444444444444444

444444222222F#666666666664444444444222222222222222222222444444444444444444

444444222222
C#777777777776666666666444444444444444444444444444444444444444

444444444444
G#777777777776666666666444444444444444444444222222222222222222

222222444444
D#555555555554444444444222222222222222222222------------------------222222

y ya me...
tracking img