Deberes

Solo disponible en BuenasTareas
  • Páginas : 5 (1034 palabras )
  • Descarga(s) : 0
  • Publicado : 10 de septiembre de 2012
Leer documento completo
Vista previa del texto
1. Cuerda: eb CREO EN TI(REIK)
2. Cuerda: Bb
3. Cuerda: Gb
4. Cuerda: Db
5. Cuerda: Ab
6. Cuerda: Eb.
Intro:

1.--------------------------------------------------
2.--------------------------------------------------
3.----------8--------8---------------8--------8-----4.-------------9------------------------9-----------
5.-------9--------9---------------9--------9--------
6.----7------------------------7--------------------


1.--------------------------------------------------
2.--------------------------------------------------3.----------2--------2----------------2--------2----
4.-------------4-------------------------4----------
5.-------4--------4----------------4--------4-------
6.----2-------------------------2-------------------


1.--------------------------------------------------2.--------------------------------------------------
3.----------6--------6---------------6--------6-----
4.-------------7------------------------7-----------
5.-------7--------7---------------7--------7--------
6.----5------------------------5--------------------3.--------------------------------------------------
2.--------------------------------------------------
3.----------1--------1---------------1--------1-----
4.-------------2------------------------2-----------
5.-------2--------2---------------2--------2--------6.----0------------------------0--------------------




Verso:
1.--------------------------------------------------
2.--------------------------------------------------
3.----------8--------8---------------8--------8-----4.-------------9------------------------9-----------
5.-------9--------9---------------9--------9--------
6.----7------------------------7--------------------
Ya no importa cada

1.--------------------------------------------------2.--------------------------------------------------
3.----------2--------2----------------2--------2----
4.-------------4-------------------------4----------
5.-------4--------4----------------4--------4-------
6.----2-------------------------2-------------------
Noche que esperé1.--------------------------------------------------
2.--------------------------------------------------
3.----------6--------6---------------6--------6-----
4.-------------7------------------------7-----------
5.-------7--------7---------------7--------7--------6.----5------------------------5--------------------
Cada calle o labe...

3.--------------------------------------------------
2.--------------------------------------------------
3.----------1--------1---------------1--------1-----
4.-------------2------------------------2-----------...
tracking img